rock
 
|tablatures   |lyrics   |discussion forums   |more tabs @ XGuitar.com

The_doors tabs

L'America bass tab

#----------------------------------PLEASE NOTE---------------------------------#
#This file is the author's own work and represents their interpretation of the #
#song. You may only use this file for private study, scholarship, or research. #
#------------------------------------------------------------------------------##




Artist: The Doors
Song: L'America
Album: LA Woman
Tabbed By: Jesus



|------------|
|------------|47x
|-2-1--------|
|-----2-1----|


|--------------------------------------------------------------------|
|--------------------------------------------------------------------|
|-7-7-5-5-7-7-5-5-7-7-5-5-7-7-5-5-7-7-5-5-7-7-5-5-7-7-5-5-7-7-5-5----|1x
|--------------------------------------------------------------------|


|----------------------------------------------|
|----------------------------------------------|
|-12-12-9-9-12-12-9-9-12-12-9-9-12-12-13-14----|1x
|----------------------------------------------|

|------------|
|------------|18x
|-2-1--------|(go faster as the song speeds up)
|-----2-1----|

|-------------------------------------------------|
|-------------------------------------------------|
|-0-0--1-1--2-2--4-4--4------2-2------------------|1x
|-----------------------2-2------0--0--0-0-2-4----|


|----------------------------|
|----------2-----------------|
|-0-0--0-3--------------2----|3x
|--------------0-0--0-3------|

|-----------------|
|-----------------|1x
|-2-2-2-2-3-3-2---|
|-----------------|

|------------|
|------------|play this until the end of the song
|-2-1--------|(go faster as the song speeds up)
|-----2-1----|

***************************************************************************************
* Generated using Power Tab Editor by Brad Larsen - http://powertab.guitarnetwork.org *
***************************************************************************************
  development and support by
dmitry ivanov