rock
 
|tablatures   |lyrics   |discussion forums   |more tabs @ XGuitar.com

The_doors tabs

Indian Summer bass tab

Indian Summer - Doors

  verse riff  
G|----7---7-|
D|---7---7--|
A|9-----9---|
E|----------|

  "and I'll wait in the summer.."
G|---------------7-7--7-7-----------------------|
D|---7---7------7--------79---7---7------7-79---| <--we'll call this the chorus
A|7-9--89--7--9---9-5--9---7-9--89--7-7-9----5--|
E|----------------------------------------------|

   solo 
G|--7------7------7------7-------7------7-------7-------7-----|
D|-----79-----79-----79----7-79-----79----7-79----7-79----7-79| play chorus again after solo
A|5--9---5--9---5--9---5--9----5--9---5--9----5--9----5--9----|
E|------------------------------------------------------------|

  outro
G|---7---7----7---7----|
D|--7---7----7---7-----|
A|9----9---9----9--5---|
E|---------------------|




  development and support by
dmitry ivanov