rock
 
|tablatures   |lyrics   |discussion forums   |more tabs @ XGuitar.com

The_doors tabs

I Looked At You bass tab

The Doors "I Looked At You"
From the debut album (1967)

I'm not sure if this is 100%, since I tried to tab it for a 4-string.
Since Manzarek plays it on his Fender Rhodes Duster Bass (keybass), it
would have been easier to play on a 6-string. Eventually I'll come back
and clean this up.


 Intro x4
G|--------------------|
D|--------------------|
A|---3--1-3--2-3------|
E|-0------------------|

  I looked at you
G|----------------------------------|
D|----------------------------------|
A|---3--1-3--2-3------3--1-3--2-3---|
E|-0---------------0----------------|

  You looked at me
G|----------------------------------|
D|----------------------------------|
A|---1---2---2-------3--1-3--2-3----|
E|-0---2---2-------0----------------|

 I smiled at you
G|----------------------------------|
D|----------------------------------|
A|---3--1-3--2-3------3--1-3--2-3---|
E|-0---------------0----------------|

You smiled at me
G|----------------------------------|
D|----------------------------------|
A|---1---2---2-3--------------------|
E|-0---2---2------------------------|

  And we're on our way
G|--------------------------0----0-----|
D|------------------------3-----3------|
A|----------------------3-----3--------|
E|--------------------3-----3----------|

No we can't turn back, babe
G|-------0--------0---------------------------|
D|-----3--------3-----------------------------|
A|---3--------3-----------3-3---1-3-----------|
E|-3--------3----------------3----------------|

Yeah, we're on our way
G|------------------------0----0----|
D|----------------------3-----3-----|
A|---3---1--3---------3------3------|
E|-0---3------------3-------3-------|

And we can't turn back
G|------0---------------------------|
D|-----3----------------------------|
A|---3----2---3--3---3--1--3--------|
E|-3----3---3------3----------------|

Cause it's too ----------
G|-------------------3--------------|
D|-----1--3--------3----------------|
A|---3-----------3------------------|
E|-0-----------0--------------------|

  late, too late
G|----------------------------------|
D|----------------------------------|
A|----------------------------------|
E|--0-0---3--0--0--0--1--0----------| (repeat)
  development and support by
dmitry ivanov