rock
 
|tablatures   |lyrics   |discussion forums   |more tabs @ XGuitar.com

The_doors tabs

Hello I Love You bass tab

The Doors - "Hello I Love You" - Bass Tab

Intro/Chorus:

|--------------|--------------------|
|*-------------|-------------------*|
|*---7-----5---|---7---5---2-3-2---*|
|--5---5-3---3-|-5---------------3--|
   1 2 & 3 4 &   1 & 2 & 3 & a 4 &   

Verses 1 and 2:

|---------------|
|*-------------*|
|*---7-4---5-2-*|
|--5-----3------|
   1 2 & 3 4 &

Verse 3:

|---------------|
|*-------------*|
|*---8-5---6-3-*|
|--6-----4------|
   1 2 & 3 4 &

Song Structure:

Rest(drums)
Chorus(x6)
Verse 1(x8)
Chorus(x4)
Verse 2(x8)
Rest(2 bars)(keyboard fill)
Verse 3(fade-out) 

By: Johari Taylor
E-mail: viking@powerup.com.au


  development and support by
dmitry ivanov