rock
 
|tablatures   |lyrics   |discussion forums   |more tabs @ XGuitar.com

The_doors tabs

Crawling King Snake bass tab


Crawling King Snake - The Doors
Written by John Lee Hooker 

intro riff 
verse riff
verse riff 
variation 

G|--------------|-------------|-------------|
D|--------------|-------------|-------------|
A|---------/53--|---------235-|---------23--|
E|00-77-00----5-|00-77-00-----|00-77-00---3-| 

chorus

G|--------------------------------------------------------------------------
----------------------|
D|-----------------------------55----235----55----235-----------------------
----------------------|
A|---------235----------235-00----00-----00----00--------------235----------
235-22-022-0-0-1h20-0-|
E|00-77-00-----00-77-00-------------------------------00-77-00-----00-77-00-
-------------------2-0|


  development and support by
dmitry ivanov