rock
 
|tablatures   |lyrics   |discussion forums   |more tabs @ XGuitar.com

The_doors tabs

Cars Hiss By My Window guitar tab

Artist: The Doors
Song Title: Cars Hiss By My Window
Albulm: L.A. Woman
Tabbed By: Eric T. Witham - (defyall77@aol.com)


E:|------------------------------------------------|
B:|------------------------------------------------|
G:|-------------------2--1--------------------2--1-|
D:|----0--1--2--------2--2-----0--1--2--------2--2-|
A:|-2-----------------2--2--2-----------------2--2-|
E:|-------------0--0--0--0--------------0--0--0----|

E:|-------------------2--0--------------------2--0-|
B:|-------------------3--2--------------------3--2-|
G:|----0--1--2-----------------0--1--2-------------|
D:|-2-----------------------2----------------------|
A:|-------------0--0--------------------0--0-------|
E:|------------------------------------------------|

E:|-2--4-3-2------------3-0-----------------------------------|
B:|-----------4-3-2-------------------------------------------|
G:|------------------2-------2--0-1---------------------------|
D:|----------------------------------0h2-0h2-0h2--0---0-------|
A:|-------------------------------------------------2---0-----|
E:|-------------------------------------------------------3--0|

E:|------------------------------------------------|
B:|------------------------------------------------|
G:|------------------------------------------------|
D:|-2--------------0h1----0-1-2--------------------|
A:|---------0-1-2------2---------------------------|
E:|------0-----------------------------------------|

Play that and then start back at the top.
  development and support by
dmitry ivanov