rock
 
|tablatures   |lyrics   |discussion forums   |more tabs @ XGuitar.com

The_doors tabs

Break On Through bass tab

The Doors - "Break On Through" - Bass Tab

Main Riff:

|---------------------|
|*---------.-.-------*|
|*-7---5-0-7-7---5-0-*|
|----7---------7------|
   1 & 2 & 3 & a 4 &

Pre-Chorus:

|-------------|
|-------------|
|-5-0-5-5-0-5-|
|-------------|
  1 & 2 3 & 4

Chorus:

|-----------------------|
|*---------5h7-5-------*|
|*-7---5-7-------7-7-7-*|
|----7------------------|
   1 & 2 & 3 e & a 4 &

End:

|-------------------|
|*-----------------*|
|*-7---5-7-7---5-7-*|
|----7-------7------|
   1 & 2 & 3 & 4 &

By: Johari Taylor
E-mail: viking@powerup.com.au




  development and support by
dmitry ivanov