rock
 
|tablatures   |lyrics   |discussion forums   |more tabs @ XGuitar.com

The_doors tabs

Backdoor Man guitar tab

back door man

chords
A7     D7     E7     A7b10
5      5      7      8
5      7      9      8
6      5      7      6
5      7      9      7
7      5      7      0
5      #      #      #

riff 1            riff 2                riff 3
----------------- --------------------- ---------------------
-------------8r7- --------------------- -----------7b8r7-----
-------------8r7- -----------5h6p5h6p5- -----------7b8r7p5---
----------------- --------------------- -------------------7-
-0-0-0-0-0-0----- -0-0-0-0-0----------- -0-0-0-0-0-----------
----------------- --------------------- ---------------------

           A7             
(1)oh yeah oh man                   im a back door man 
(2)        and all your people there trying to sleep
(3)        you men eat your dinner eat your pork and beans

                                          G#7 G7
~            ~              ~
im out to make her with my midnight creep
i eat more chicken any man ever seen

D7                                  A7
                  im a back door man
yeah        cause im a back door man
yeah yeah         im a back door man

    E7                    D7                     A7
the men dont know but the little girls understand
the men dont know what your little girls understand
the men dont know but your little girls understand

-----------------------------------------------------------
----------5------------------5-----5-----5-5---5-----5-----
-7b8--------7b8r7p5---5--------7b8---7b8---7b8---7b8---7b8-
--------------------7--------------------------------------
-----------------------------------------------------------
-----------------------------------------------------------

-----------------------------------------8b9-5-------------
-----------------------------8b9---------------8b9---------
-7b8r7p5-------------------5-----7b8-5---------------------
---------7s------------5s7-------------7-------------------
-----------------3-5s7-------------------------------------
---------------5-------------------------------------------

-------------8b9-5-----------------------------------------
-8b9-8-5-----------8b9-5-8b9-8-5---------------------------
---------7b8---------------------7b8r7p5---5-7b9-5---------
-----------------------------------------7---------7-------
-----------------------------------------------------------
-----------------------------------------------------------
-----------------------------------------------------------

outro
                            A7b10
-8b9-5---------------------
-------8b9-8-5-------------
---------------8-7-5-------
---------------------7-5-7-
---------------------------
---------------------------
  development and support by
dmitry ivanov