rock
 
|tablatures   |lyrics   |discussion forums   |more tabs @ XGuitar.com

The_doors tabs

Backdoor Man bass tab

Backdoor Man - Doors

  intro riff   chorus
G|----------|---------------------------------------------------------------------------|
D|--------5-|----------------5--------5--5----------5---------5----5--0575----------5---|
A|------56--|----776655505056-65-55505-65-65------56--------56--777--7----7-55505056-65-|
E|555555----|5555---------------------------555555----555555----------------------------|

  verse riff
G|-----------|
D|--------5--|
A|--77--56---|
E|55--55-----|

  development and support by
dmitry ivanov