rock
 
|tablatures   |lyrics   |discussion forums   |more tabs @ XGuitar.com

Smashing Pumpkins tabs

Zero bass tab

The Smashing Pumpkins - Zero
Tabbed by Dennis Drögemüller


The original tab was by Fancy and it was right, but incomplete. I added rythem and also an
interlude and variations of chorus and verse. This very close, ENJOY IT!!!

Verse/Solo
Gb|---------------------------------|
Db|---------------------------------|
Ab|-3\2-2---------3-3\2-2-----------|
Eb|-------0-0-0-0---------0-0-0-0-0-|
    1 + 2 + 3 + 4 + 1 + 2 + 3 + 4 +

Chorus
Gb|---------------------------------|
Db|---------------------------------|
Ab|-7-----9-----7-----A-----9---5---|  A=10
Eb|---0-0---0-0---0-0---0-0---0---0-|
    1 + 2 + 3 + 4 + 1 + 2 + 3 + 4 + 

Interlude
Gb|-----------------------------------------------------------------|
Db|-----------------------------------------------------------------|
Ab|-----------------------------------------------------------------| 
Eb|-B-B-B-----------7-7-7-----------7-7-7-----------3-3-------------|  B=12
    1 + 2 + 3 + 4 + 1 + 2 + 3 + 4 + 1 + 2 + 3 + 4 + 1 + 2 + 3 + 4 +

Variation/Chorus
Gb|---------------------------------|
Db|---------------------------------|
Ab|-7-----7-----7-----7-----9---5---|
Eb|---0-0---0-0---0-0---0-0---0---0-|
    1 + 2 + 3 + 4 + 1 + 2 + 3 + 4 + 

Variation/Verse
Gb|---------------------------------|
Db|---------------------------------|
Ab|-3\2-2---------3-3\2-2-----------|
Eb|-------0-0-0-0-------------------|
    1 + 2 + 3 + 4 + 1 + 2 + 3 + 4 +

Explination: |-3\2-| : Slide down from the first to the second note, struck the first

System:
 Rest 2 measures (Guitar only)
 Verse             6x
 Chorus            4x
 Rest 1 measure
 Verse             6x
 Interlude         1x
 Rest less then 1 measure
 Verse             6x
 Chorus            4x
 Rest 1 measure
 Solo              4x
 Variation Chorus  4x
 Verse             3x  
 Variation Verse   1x

For Comments etc. mail me at funkymonk@gmx.net

All we need are 4 Strings and a bit time...BASS RULEZ!!!
  development and support by
dmitry ivanov