rock
 
|tablatures   |lyrics   |discussion forums   |more tabs @ XGuitar.com

Smashing Pumpkins tabs

Wound guitar chords

X===============================PLEASE NOTE==============================X
X  This tab is all my own and represents my interpretation of the song.  X
X You may only use this tab for private study, scholarship, or research. X
X  Do not change, deface, mutilate, or in any other way alter this tab.  X
X   You must email me first if you want to use this tab on your site.    X
X========================================================================X


*Wound*
Transcribed by Obscured@san.rr.com
Http://home.san.rr.com/obscured


Tuning: E A D G B E


INTRO
|---------------------------------|
|---------------------------------|
|-2-2-2-2-2-2-2-2-2-2-2-2-2-2-2-2-|
|-2-2-2-2-2-2-2-2-2-2-2-2-2-2-2-2-|
|-0-0-0-0-0-0-0-0-0-0-0-0-0-0-0-0-|
|---------------------------------|

                       x3
|----------------0----0--|
|--(0)----(0)----0----0--|
|--(x)----(x)----X-2--2--|
|---11p9---7p6---6-2--2--|
|-0-0----0-0---0-0-0--0--|
|------------------------|


VERSE
                       x2
|----------------0----0--|
|--(0)----(0)----0----0--|
|--(x)----(x)----X-2--2--|
|---11p9---7p6---6-2--2--|
|-0-0----0-0---0-0-0--0--|
|------------------------|

|-2-2-2-2-2-2-2-0---0-0-0-0-0-0-0-|
|-2-2-2-2-2-2-2-3---3-3-3-3-3-3-3-|
|-2-2-2-2-2-2-2-2---2-2-2-2-2-2-2-|
|-4-4-4-4-4-4-4-0---0-0-0-0-0-0-0-|
|-4-4-4-4-4-4-4-------------------|
|-2-2-2-2-2-2-2-------------------|

                       x3
|----------------0----0--|
|--(0)----(0)----0----0--|
|--(x)----(x)----X-2--2--|
|---11p9---7p6---6-2--2--|
|-0-0----0-0---0-0-0--0--|
|------------------------|

|-2-2-2-2-2-2-2-0---0-0-0-0-0-0-0-|
|-2-2-2-2-2-2-2-3---3-3-3-3-3-3-3-|
|-2-2-2-2-2-2-2-2---2-2-2-2-2-2-2-|
|-4-4-4-4-4-4-4-0---0-0-0-0-0-0-0-|
|-4-4-4-4-4-4-4-------------------|
|-2-2-2-2-2-2-2-------------------|

|-0-0-0-0-0-0-0-0-|
|-0-0-0-0-0-0-0-0-|
|-2-2-2-2-2-2-2-2-|
|-2-2-2-2-2-2-2-2-|
|-0-0-0-0-0-0-0-0-|
|-----------------|


PRECHORUS
Bm Bm F#m E
Bm Bm F#m E Bm


CHORUS
Dsus F#m E E
Dsus F#m E E
Dsus Dsus F#m E
Dsus Dsus F#m E


VERSE 2
                       x2
|----------------0----0--|
|--(0)----(0)----0----0--|
|--(x)----(x)----X-2--2--|
|---11p9---7p6---6-2--2--|
|-0-0----0-0---0-0-0--0--|
|------------------------|

|-2-2-2-2-2-2-2-0---0-0-0-0-0-0-0-|
|-2-2-2-2-2-2-2-3---3-3-3-3-3-3-3-|
|-2-2-2-2-2-2-2-2---2-2-2-2-2-2-2-|
|-4-4-4-4-4-4-4-0---0-0-0-0-0-0-0-|
|-4-4-4-4-4-4-4-------------------|
|-2-2-2-2-2-2-2-------------------|

                       x3
|----------------0----0--|
|--(0)----(0)----0----0--|
|--(x)----(x)----X-2--2--|
|---11p9---7p6---6-2--2--|
|-0-0----0-0---0-0-0--0--|
|------------------------|

|-2-2-2-2-2-2-2-0---0-0-0-0-0-0-0-|
|-2-2-2-2-2-2-2-3---3-3-3-3-3-3-3-|
|-2-2-2-2-2-2-2-2---2-2-2-2-2-2-2-|
|-4-4-4-4-4-4-4-0---0-0-0-0-0-0-0-|
|-4-4-4-4-4-4-4-------------------|
|-2-2-2-2-2-2-2-------------------|

|-0-0-0-0-0-0-0-0-|
|-0-0-0-0-0-0-0-0-|
|-2-2-2-2-2-2-2-2-|
|-2-2-2-2-2-2-2-2-|
|-0-0-0-0-0-0-0-0-|
|-----------------|


PRECHORUS 2
Bm Bm F#m E
Bm Bm F#m E


CHORUS 2
Dsus Dsus F#m E
Dsus Dsus F#m E Bm
Dsus F#m E E
Dsus F#m E E
Dsus F#m E E
Dsus Dsus F#m E
Dsus Dsus F#m E


OUTRO
Bm Bm F#m E
Bm Bm F#m E
Bm Bm F#m E
Bm Bm F#m E
Dsus F#m

End on Asus



---Chords

  Asus Bm Dsus E F#m
|--0---2---0---0--2--|
|--0---3---3---0--2--|
|--2---4---2---1--2--|
|--2---4---0---2--4--|
|--0---2-------2--4--|
|--------------0--2--|
  development and support by
dmitry ivanov