rock
 
|tablatures   |lyrics   |discussion forums   |more tabs @ XGuitar.com

Smashing Pumpkins tabs

Wound bass tab

Title: Wound
Artist: The Smashing Pumpkins
Album: MACHINA/the machines of God
Tuning: E A D G

Intro
Follow the rythym and play a bunch of A's (5th fret on the E string) until
Billy starts singing, then go into the main verse riff


Verses (Riff One)
G -----------------------------------------------------------------------
D -----------------------------------------------------------------------
A -----------------------------------------------------------------------
E 5-5-5-5-5-5-5-5-5-5-5-5-5-5-5-5-5-5-5-5-5-5-5-5-5-5-5-5-5-5/-2---\11---

  -------------------------------
  -------------------------------
  -------------------------------   <-----play half of this before you go
  5-5-5-5-5-5-5-5-5-5-5-5-5-5-5-5         into the "If you wait..." part

(Riff Two)
G ---------------------------------------------------------------
D ---------------------------------------------------------------
A 2-2-2-2-2-2-2-2-2-2-2-2-2-2-2-2--------------------------------
E --------------------------------2-2-2-2-2-2-2-2-0-0-0-0-0-0-0-0

  ---------------------------------------------------------------
  ---------------------------------------------------------------
  2-2-2-2-2-2-2-2-2-2-2-2-2-2-2-2--------------------------------
  --------------------------------2-2-2-2-2-2-2-2-0-0-0-0-0-0-0-0

  ---------------
  ---------------
  2-2-2-2-2-2-2-2
  ---------------

 (Riff Three)
G -----------------------------------------------------------------
D -----------------------------------------------------------------
A 5-5-5-5-5-5-5-5--9-9-9-9-9-9-9-9--7-7-7-7-7-7-7-7-7-7-7-7-7-7-7-7
E -----------------------------------------------------------------

 (Riff Four)
G ---------------------------------------------------------------
D ---------------------------------------------------------------
A 5-5-5-5-5-5-5-5-5-5-5-5-5-5-5-5--------------------------------
E --------------------------------2-2-2-2-2-2-2-2-0-0-0-0-0-0-0-0


After this, you would play Riff One, followed by Riff Four, then Riff 5
(which is the altered Riff Two, found below)

Riff Five
G ---------------------------------------------------------------
D ---------------------------------------------------------------
A 2-2-2-2-2-2-2-2-2-2-2-2-2-2-2-2-9-9-9-9-9-9-9-9-7-7-7-7-7-7-7-7
E ---------------------------------------------------------------

  ---------------------------------------------------------------
  ---------------------------------------------------------------
  2-2-2-2-2-2-2-2-2-2-2-2-2-2-2-2-9-9-9-9-9-9-9-9-7-7-7-7-7-7-7-7
  ---------------------------------------------------------------

  ---------------
  ---------------
  2-2-2-2-2-2-2-2
  ---------------

After that, play Riff Three, then play Riff Four for quite a long time
(up until the outro begins)

Outro
G --------------------------------------------
D --------------------------------------------
A 5-5-5-5-5-5-5-5\-9-9-9-9-9-9-9-9------------
E ---------------------------------5-------5-/


-Syrial Carpens
do not use without permission
  development and support by
dmitry ivanov