rock
 
|tablatures   |lyrics   |discussion forums   |more tabs @ XGuitar.com

Smashing Pumpkins tabs

Window Paine bass tab

Band: The Smashing Pumpkins                                    
Album: Gish                                                    
Song: Window Paine                                             
Written By: William Patrick Corgan Jr.                               
Tabbed By: Julie Jung  j.jung@mailexcite.com                                   
For: Bass Guitar                                              

Riff #1
G|---------------------|
D|---------------------|
A|---------------------|
E|-7-0--7-0--7-0--7-0--|


Riff #2
G|-----------------------------------------------------------------------|
D|-----------------------------------------------------------------------|
A|-5--7-----------5--7-----------5--7------------------------------------|
E|-------7-0-7-0--------7-0-7-0--------7-0-7-0--3--3-3-3---3-5-5-5--5-0--|


(play riff #2 once than play riff #2 until the stanza end)


Riff #3
G|------------------------------------|
D|------------------------------------|
A|-5-----7----------------------------|
E|----7-----0h0h0h0--0h0h0h0--0h0h0h--|

(play riff #3 4x)

Riff #2

(play riff #3 13x)

(pause)

Riff #4
G|---------------|
D|---------------|
A|-----5--5------|
E|-0--------7-5--|


Riff #5
G|------------|
D|------------|
A|------5--4--|
E|-0----------|


Riff #6
G|-----------------------|
D|-----------------------|
A|-7-----5-7---5---------|
E|---5-7-----5----7-5-7--|

(play riff #6 couple of time)

Riff #7
G|----------------------------------------------------------------------------|
D|----------------------------------------------------------------------------|
A|------5--/12-12-12-11--7--7h9h7-9--5--5-5-5-5-7--7-7-7-7--7-7-5--/12-12-14--|
E|-0--------------------------------------------------------------------------|

Riff #8
G|---------------------------------------------------------------------------------|
D|---------------------------------------------------------------------------------|
A|-7--7-7----5-------------7-------5---------5---------5---------5---------5-------|
E|---------5----7-5-7-0------5-7--------0---------0---------0---------0---------0--|
  development and support by
dmitry ivanov