rock
 
|tablatures   |lyrics   |discussion forums   |more tabs @ XGuitar.com

Smashing Pumpkins tabs

We Only Come Out At Night bass tab

Song: we only come out at night
Band: smashing pumpkins
Album: mellon collie and the infinite sadness
tabbed by: nadja (fantomas@btinternet.co.uk)

nice easy one again..........

inro/chorus (we only come out at night..)

G:-----7---5---------7----5-------7---10-------7---5-------------
D:-5------------5-------------5-----------5----------------------
A:---------------------------------------------------------------
E:---------------------------------------------------------------

verse (and once again, you'll pretend to know me well, my friends..)

G:-----2-----2--5--------------2----2--5---------5----5------2---
D:-3------3--------5----0---3----3--------5--0-----0----5-3------
A:---------------------------------------------------------------
E:---------------------------------------------------------------

verse variation ( and once again, you'll pretend that there's an 
end..)

G:----2-----------2--------5-----5----5--------2-----------------
D:-3-----2-3-5-3----2-3-5------0---0-----5--3--------------------
A:---------------------------------------------------------------
E:---------------------------------------------------------------
  development and support by
dmitry ivanov