rock
 
|tablatures   |lyrics   |discussion forums   |more tabs @ XGuitar.com

Smashing Pumpkins tabs

Ugly bass tab

Title: Ugly
Artist: Smashing Pumpkins
Album: The Aeroplane Files High Box set 
or 1979 single
Tuning: Eb Ab Db Gb

When Billy says "I'll never be..." Bass comes in:

Riff 1
G|------------------------------|
D|------------------------------|
A|------------3--3-3-3----------|
E|0-0-0-0-3-3----------5-5-5-5--|

Their are some variations in that, just listen to D'arcy change.

The chorus part goes as follows:
Riff 2
G|--------------------------------|
D|--------------------------------|
A|5-5-5-5-5-5-5-5-3--3------------|
E|----------------------0--0-0-0--|

After the chorus take a nice break.

Then come in again with Riff 1, and your done.

--------------
Tab was made by: Nathan Amber, take it if you want it...just enjoy..
hope you like it!! E-mail me if you have a better way of playing it!
  development and support by
dmitry ivanov