rock
 
|tablatures   |lyrics   |discussion forums   |more tabs @ XGuitar.com

Smashing Pumpkins tabs

Try, Try, Try guitar tab

X===============================PLEASE NOTE==============================X
X  This tab is all my own and represents my interpretation of the song.  X
X You may only use this tab for private study, scholarship, or research. X
X  Do not change, deface, mutilate, or in any other way alter this tab.  X
X   You must email me first if you want to use this tab on your site.    X
X========================================================================X


*Try, Try, Try*
Transcribed by Obscured@san.rr.com
Http://home.san.rr.com/obscured


Tuning: E A D G B E


INTRO

 Piano arranged for guitar
|---2-2-----2-2-----2-2-----2-2---|
|---3-3-----3-3-----3-3-----3-3---|
|----------------(2)--------------|
|(0)--------------0------(4)------|
|--------(2)--------------2-------|
|-3-------0-----------------------|


VERSE
                    x3
|-2----2----2----2----|
|-3----3----3----3----|
|-0----0----2----4----|
|-0----2----0----4----|
|-X----2---------2----|
|-3----0--------------|

|-2----2----2----|
|-3----3----3----|
|-0----0----2----|
|-0----2----0----|
|-X----2---------|
|-3----0---------|


PRECHORUS
|-0----0----0----0----0----0----0--0--|
|-0----0----0----0----0----0----0--3--|
|-2----0----2----0----2----0----0--2--|
|-2----2----2----2----2----2----2--0--|
|-0----2----0----2----0----2----2-----|
|------0---------0---------0----0-----|

 Lead                           x3
|-0---0---0---0-------------------|
|---2---2---2---2-0---0---0---0---|
|-------------------2---2---2---2-|
|---------------------------------|
|---------------------------------|
|---------------------------------|


CHORUS
                    x3
|-2----2----2------2--|
|-3----3----3------3--|
|-0----2----4------2--|
|-0----0----4------0--|
|-X----X----2---------|
|-3----2--------------|

|-2----2----2----|
|-3----3----3----|
|-0----2----4----|
|-0----0----4----|
|-X----X----2----|
|-3----2---------|


PRECHORUS 2
|-0----0----0----0----0----0----0--0--|
|-0----0----0----0----0----0----0--3--|
|-2----0----2----0----2----0----0--2--|
|-2----2----2----2----2----2----2--0--|
|-0----2----0----2----0----2----2-----|
|------0---------0---------0----0-----|

 Lead                           x3
|-0---0---0---0-------------------|
|---2---2---2---2-0---0---0---0---|
|-------------------2---2---2---2-|
|---------------------------------|
|---------------------------------|
|---------------------------------|


VERSE 2

 Piano arranged for guitar
|---2-2-----2-2-----2-2-----2-2---|
|---3-3-----3-3-----3-3-----3-3---|
|----------------(2)--------------|
|(0)--------------0------(4)------|
|--------(2)--------------2-------|
|-3-------0-----------------------|

                    x3
|-2----2----2----2----|
|-3----3----3----3----|
|-0----0----2----4----|
|-0----2----0----4----|
|-X----2---------2----|
|-3----0--------------|

|-2----2----2----|
|-3----3----3----|
|-0----0----2----|
|-0----2----0----|
|-X----2---------|
|-3----0---------|


PRECHORUS 3
|-0----0----0----0----0----0----0--0--|
|-0----0----0----0----0----0----0--3--|
|-2----0----2----0----2----0----0--2--|
|-2----2----2----2----2----2----2--0--|
|-0----2----0----2----0----2----2-----|
|------0---------0---------0----0-----|

 Lead                           x3
|-0---0---0---0-------------------|
|---2---2---2---2-0---0---0---0---|
|-------------------2---2---2---2-|
|---------------------------------|
|---------------------------------|
|---------------------------------|


CHORUS 2
                    x3
|-2----2----2------2--|
|-3----3----3------3--|
|-0----2----4------2--|
|-0----0----4------0--|
|-X----X----2---------|
|-3----2--------------|

|-2----2----|
|-3----3----|
|-0----2----|
|-0----0----|
|-X----X----|
|-3----2----|


BRIDGE
                     x3
|-2----3----2----3--2--|
|-3----3----3----3--3--|
|-2----0----2----0--4--|
|-0----0----0----0--4--|
|------2---------2--2--|
|------3---------3-----|


PRECHORUS 4
|-0----0----0----0----0----0----0--0--2--|
|-0----0----0----0----0----0----0--3--3--|
|-2----0----2----0----2----0----0--2--0--|
|-2----2----2----2----2----2----2--0--0--|
|-0----2----0----2----0----2----2-----2--|
|------0---------0---------0----0-----3--|

 Lead                           x3
|-0---0---0---0-------------------|
|---2---2---2---2-0---0---0---0---|
|-------------------2---2---2---2-|
|---------------------------------|
|---------------------------------|
|---------------------------------|


INTERLUDE

 Piano arranged for guitar
|---2-2-----2-2-----2-2-----2-2---|
|---3-3-----3-3-----3-3-----3-3---|
|----------------(2)--------------|
|(0)--------------0------(4)------|
|--------(2)--------------2-------|
|-3-------0-----------------------|


OUTRO
                    x7
|-2----2----2----2----|
|-3----3----3----3----|
|-0----0----2----4----|
|-0----2----0----4----|
|-X----2---------2----|
|-3----0--------------|

End on
|-2--------|
|-3--------|
|-0--------|
|-0--------|
|-X--------|
|-3--------|
  development and support by
dmitry ivanov