rock
 
|tablatures   |lyrics   |discussion forums   |more tabs @ XGuitar.com

Smashing Pumpkins tabs

Try, Try, Try bass tab

Title: Try, Try, Try
Artist: The Smashing Pumpkins
Release: MACHINA/the machines of God
Tuning: E A D G (standard)


Verses
G ---------------------------------------------------
D --5-5--5--5\-7-------------------------------------
A 7--------------7-7--7--7\-9-/5-5--5--5\-7----------
E ------------------------------------------7-7--7--7

Pre-chorus 
G ------------------------
D 9-9-7-7--7--7h9---------
A ----------------7-7-7-7-
E ------------------------

  ------------------------
  9-9-7-7--7--7h9---------
  ----------------7-7-7-7-
  ------------------------

  ------------------------------
  9-9-7-7--7--7h9---------------
  ----------------7-7-7-7------5
  --------------------------7---

Chorus
G ---------------------------------------------------------
D 5-5-5-5-5-5-4-4-4-4-4-4----------------------------------
A ----------------------------------------------5-5-5-5-5-5
E ------------------------7-7-7-7-7-7-7-7-7-7-7------------

  ---------------------------------------------------------
  5-5-5-5-5-5-4-4-4-4-4-4-9-9-9-9-9-9-9-9------------------
  ----------------------------------------------5-5-5-5-5-5
  ----------------------------------------7-7-7------------

  ----------------------------------------------------------
  5-5-5-5-5-5-4-4-4-4-4-4-9-9-9-9-9-9-9-9------------------
  ----------------------------------------------5-5-5-5-5-5
  ----------------------------------------7-7-7------------

  -----------------------
  5-5-5-5-5-5-4-4-4-4-4-4
  -----------------------
  -----------------------

Then play the Pre-chorus riff again
Then, after the rest,  it goes back to the verses riff, 
followed by the pre-chorus riff and chorus riff...
then play the following riff


G ----------------------------------------------------------
D ----------------5-5-5-5-5-5-5-5-----------------5-5-5\-9-9
A 5-5-5-5-5-5-5-5-----------------5-5-5-5-5-5-5-5-----------
E ----------------------------------------------------------

>From there, play the pre-chorus riff again.  Then, after the break, 
play the following modified verse riff
G ------------------------------------------------
D --5-5--5--5\-7----------------------------------
A 7--------------7-7--7--7\-9-/5-5--5--5----------
E ---------------------------------------7-7--7--7

And that's it!

-Syrial Carpens
do not use without permission
  development and support by
dmitry ivanov