rock
 
|tablatures   |lyrics   |discussion forums   |more tabs @ XGuitar.com

Smashing Pumpkins tabs

Tonight, Tonight guitar tab

Artist: Smashing Pumpkins
Track: Tonight Tonight
Alnum: Mellon Collie and The Infinite Sadness

                      E  A  D  G  B  e
tune down 1/2 a step: Eb Ab C# F# Bb eb

Chords:
G     320033
Em    022000
C     X32010
Cadd9 X32022
D     XX0232
Am    X02210
D/F#  200230

String intro
(i think it would use two guitars)
                         		 
E|--10---------------------------10----12--------12-----|
B|--------12--10--------10--12--------------------------|
G|------------------12----------------------------------|
D|------------------------------------------------------|
A|------------------------------------------10-------9--|
E|------------------------------------------------------|
	  					         
E|--------10-------------------------------------10--12-|
B|-------------------------12--10--12-10--8--12---------|
G|------------------------------------------------------|
D|----------------9-------------------------------------|
A|-12-------10-12---12-10-------------------------------|
E|----10------------------------------------------------|
						  
E|-12--15--10-------12--10-------12--10-----------------|
B|------------------------------------------------------|
G|------------------------------------------------------|
D|---------10-9--12-----10-9--12-----10-9--12-----------|
A|------------------------------------------------10----|
E|------------------------------------------------------|

G///|G///|G///|G///|Em///|Em///|Em///|Em///|  X2
Cadd9 G D  
Cadd9 G D
Cadd9 G D G







riff (finger picking)
e|-----------------------------------|
B|----0-----0-----0---0-----0-----0--|
G|------0-----0---------0-----0------|    X4
D|--------0-----0---------0-----0----|
A|--3---------------5----------------|
E|-----------------------------------|

e|-----------------------------------|
B|----0-----0-----0---0-----0-----0--|
G|------0-----0---------0-----0------|    
D|--------6-----6---------0-----0----|
A|--7---------------5----------------|
E|-----------------------------------|
Listen to CD to get it right.

PLay over lyrics


Time is never time at all
You can never ever leave 
Without leaving a piece of youth
And our lives are forever changed
We will never be the same
The more you change the less you feel

Believe
Believe in me 
Believe
      G D Em
BELIEVE


     Am                    C                       G D Em
That life can change, that you're not stuck in vain
      Am                 C          
We're not the same we're different 

Cadd9 G D  Cadd9 G D
T-o-n-i-g-h-t 
Cadd9 G D 
Tonight
Em          Am
Tonight, so bright

Cadd9 G D Cadd9 G D   G
T-o-n-i-g-h-t       Tonight 
                    
G///|G///|G///|G///|Em///|Em///|Em///|Em///|

G
And you know you're never sure
                             Em
But you're sure you could be right

If you held yourself up to the light
G
And the embers never fade
                    Em
In your city by the lake

The place where you were born

(finger picking again)                  G  D  Em
Believe, believe in me, believe, BELIEVE
       Am       C          G  D  Em
In the resolute urgency of now
           Am              C               Cadd9 G D  Cadd9 G D
And if you believe there's not a chance    t-o-n-i-g-h-t
 
Cadd9 G D   
Tonight
  Em        Am
Tonight, so bright

Cadd9 G D   
Tonight
       G D Em
Tonight.
 
      Am          Cadd9       G      D  Em
We'll crucify the insincere tonight (tonight)
      Am                       Cadd9         G      D  Em
We'll make things right, we'll feel it all tonight (tonight)
      Am            Cadd9        G      D  Em
We'll find a way to offer up the night (tonight)
        Am        Cadd9           G     D  Em
The indescribable moments of your life (tonight)
      Am          Cadd9      G      D  Em
The impossible is possible tonight (tonight)
  Am                 Cadd9        
Believe in me as I'm leaving you, 
 
(continue fingerpicking)                 G  D/F#  Em
Tonight, tonight, tonight, tonight, tonight.
  development and support by
dmitry ivanov