rock
 
|tablatures   |lyrics   |discussion forums   |more tabs @ XGuitar.com

Smashing Pumpkins tabs

To Forgive guitar tab

TO FORGIVE
 Transcribed By Adam Morris

 One of the most emotional sounding songs on the
 double CD... great stuff.

 1/2 step down (Duh)

 Intro (Fig 1)
             *
|--------------|---------------|------------------|---------|
|------------3-|---------------|------------------|---------| 
|-------2------|---------------|------------------|---------| 
|----0-----0---|-------2-----2-|-------4----4---4-|---------|
|--------------|----0-----0----|----2-----2-------|-2-0-----| 
|--3-----------|-2-------------|-0------------0---|-----0-2-| 

* At times this note is played with a 2 on the G-string as well.

|----------------------------------------------------|
|------------0-----------0---------------------------| 
|------------0-----------0---------------------------| 
|----------------------------------------------------|
|----------------------------------------------------| 
|--7---/9-\5----0---2--3-----------------------------| 
   
   Really unsure about the open strings up there :)

CHORUS - Main riff except where it says "Nothing is Important"
it goes to this instead of the normal bit.

|-------------|---------------------------------------|
|-------3-----|---------------------------------------| 
|-------2-----|-----0---------------------------------| 
|----4------4-|-----2---------------------------------|
|-2-------2---|---2-----------------------------------| 
|-------------|-0-------------------------------------| 

The rise thingy goes like this
                                      * Same octave as previous
A....B....C#....D..E..F#....G....A....B..C#
Back down..                      *
                    Higher Octave then previous
A....B....C#....D..E
Back down again

B...C#...D..E..F

Back to the main thingy.


I hope you like it.  I LOVE this song..Darcy and Billy sound
great together.

Tell me what you think..benmo@deakin.edu.au



Tab: To forgive
Artist: Smashing Pumpkins
                                   KEY:  p= pull off
Tuning: Down 1/2 step                    ^= bend up

intro/verse
G5         F#5         Em
----------------------------------------------------------
----------------------------------------------------------
----------------------------------------------------------
-----5---5------2----------4---4-------4p2----------------
---5---5------4---4-0----2---2---2----------2-------------
-3----------2----------0------------0---------0-----------

verse part 2
----------------------------------------------------------
----------------------------------------------------------
----------------------------------------------------------
----------------------------------------------------------
------3^--0-----------------------------------------------
--0-------------------------------------------------------

chorus

G                Asus2 Em(use Em part from intro)
holding back the fool again

chorus chords
      EADGBE

G-    320003
Asus2-x02200


Any questions or comments email me at Riffhead@aol.com
  development and support by
dmitry ivanov