rock
 
|tablatures   |lyrics   |discussion forums   |more tabs @ XGuitar.com

Smashing Pumpkins tabs

This Time guitar tab

X===============================PLEASE NOTE==============================X
X  This tab is all my own and represents my interpretation of the song.  X
X You may only use this tab for private study, scholarship, or research. X
X  Do not change, deface, mutilate, or in any other way alter this tab.  X
X   You must email me first if you want to use this tab on your site.    X
X========================================================================X


*This Time*
Transcribed by Obscured@san.rr.com
Http://home.san.rr.com/obscured


Tuning: Eb Ab Db Gb Bb Eb


INTRO - 1 guitar plays the low notes and another plays the high notes

|------2---------------------2--------|
|--4-----------------------4----------|
|----4-------------------4------------|
|-------------------------------------|
|-------------------------------------|
|-/7--------\2--------(p)0------------|


VERSE
                                   x3
|------2--------------------2--------|
|--4----------------------4----------|
|----4------------------4------------|
|------------------------------------|
|-(2)--------------------------------|
|-----------(2)--------(0)-----------|


CHORUS
                   x2
|--------------------|
|--------------------|
|-----------6--------|
|-6----4----6--------|
|-6----4----4--------|
|-4----2-------------|


VERSE 2

 Guitar 1                          x2
|------2--------------------2--------|
|--4----------------------4----------|
|----4------------------4------------|
|------------------------------------|
|-(2)--------------------------------|
|-----------(2)--------(0)-----------|
|Guitar 2                          x2
|------------------------------------|
|------------------------------------|
|--4---------------------------------|
|--4---------4----------2------------|
|--2---------4----------2------------|
|------------2----------0------------|


CHORUS 2
                   x2
|--------------------|
|--------------------|
|-----------6--------|
|-6----4----6--------|
|-6----4----4--------|
|-4----2-------------|

                   x2
|--------------------|
|--------------------|
|-4------------------|
|-4----4----2--------|
|-2----4----2--------|
|------2----0--------|


INTERLUDE

 Rhythm            x2
|--------------------|
|--------------------|
|-4------------------|
|-4----4----2--------|
|-2----4----2--------|
|------2----0--------|

 Lead                                     x2
|-/11~~~~--/16~~-14~~~~--/16~~-11~~~-7~~~~~-|
|-------------------------------------------|
|-------------------------------------------|
|-------------------------------------------|
|-------------------------------------------|
|-------------------------------------------|


VERSE 3 - Guitars tacet


CHORUS 3
                   x2
|--------------------|
|--------------------|
|-4------------------|
|-4----4----2--------|
|-2----4----2--------|
|------2----0--------|

|---------------------|
|---------------------|
|-9----6----9----6----|
|-9----6----9----6----|
|-7----4----7----4----|
|---------------------|


INTERLUDE 2

 Rhythm            x2
|--------------------|
|--------------------|
|-4------------------|
|-4----4----2--------|
|-2----4----2--------|
|------2----0--------|

 Lead                                     x2
|-/11~~~~--/16~~-14~~~~--/16~~-11~~~-7~~~~~-|
|-------------------------------------------|
|-------------------------------------------|
|-------------------------------------------|
|-------------------------------------------|
|-------------------------------------------|


VERSE 4

 Guitar 1                          x2
|------2--------------------2--------|
|--4----------------------4----------|
|----4------------------4------------|
|------------------------------------|
|-(2)--------------------------------|
|-----------(2)--------(0)-----------|
|Guitar 2                          x2
|------------------------------------|
|------------------------------------|
|--4---------------------------------|
|--4---------4----------2------------|
|--2---------4----------2------------|
|------------2----------0------------|


CHORUS 4
                   x2
|--------------------|
|--------------------|
|-----------6--------|
|-6----4----6--------|
|-6----4----4--------|
|-4----2-------------|

                   x2
|--------------------|
|--------------------|
|-4------------------|
|-4----4----2--------|
|-2----4----2--------|
|------2----0--------|

|---------------------|
|---------------------|
|-9----6----9----6----|
|-9----6----9----6----|
|-7----4----7----4----|
|---------------------|

End on
|--------------------|
|--------------------|
|-9----6-------------|
|-9----6----2--------|
|-7----4----2--------|
|-----------0--------|
  development and support by
dmitry ivanov