rock
 
|tablatures   |lyrics   |discussion forums   |more tabs @ XGuitar.com

Smashing Pumpkins tabs

The Sacred And Profane guitar tab

X===============================PLEASE NOTE==============================X
X  This tab is all my own and represents my interpretation of the song.  X
X You may only use this tab for private study, scholarship, or research. X
X  Do not change, deface, mutilate, or in any other way alter this tab.  X
X   You must email me first if you want to use this tab on your site.    X
X========================================================================X


*The Sacred and Profane*
Transcribed by Obscured@san.rr.com
Http://home.san.rr.com/obscured


Tuning: Eb Ab Db Gb Bb Eb


INTRO
|-----------------------------------------------|
|----2/4\2~~-----------------2/4\2~~-----7\2~~--|
|-4--------------4/6------4---------------------|
|-4-----------4------4~~--4-----------4---------|
|-2-----------4-----------2-----------4---------|
|-------------2-----------------------2---------|


VERSE
|-----------------------------------------|
|-----------------------------------------|
|-4---------4---------4----6--------------|
|-4----4----4----4----4----6----2----4----|
|-2----4----2----4----2----4----2----4----|
|------2---------2--------------0----2----|


CHORUS
|------------------------------------------|
|------------------------------------------|
|-6------------6------------6---------6----|
|-6----6-------6----6-------6----4----6----|
|-4----6-------4----6-------4----4----4----|
|------4---4-7------4---4-7------2---------|


BRIDGE
                    x4
|---------------------|
|---------------------|
|------4-----6--------|
|-6----4--4--6--------|
|-6----2--4--4--------|
|-4-------2-----------|

 Lead                                           x4
|-------------------------------------------------|
|-12/14--12\9--9/12--9\7--7/9--7\4--4/7--4~~-2~~--|
|-------------------------------------------------|
|-------------------------------------------------|
|-------------------------------------------------|
|-------------------------------------------------|


VERSE 2
|-----------------------------------------|
|-----------------------------------------|
|-4---------4---------4----6--------------|
|-4----4----4----4----4----6----2----4----|
|-2----4----2----4----2----4----2----4----|
|------2---------2--------------0----2----|


CHORUS 2
|------------------------------------------|
|------------------------------------------|
|-6------------6------------6---------6----|
|-6----6-------6----6-------6----4----6----|
|-4----6-------4----6-------4----4----4----|
|------4---4-7------4---4-7------2---------|


BRIDGE 2
                    x4
|---------------------|
|---------------------|
|------4-----6--------|
|-6----4--4--6--------|
|-6----2--4--4--------|
|-4-------2-----------|

 Lead                                           x4
|-------------------------------------------------|
|-12/14--12\9--9/12--9\7--7/9--7\4--4/7--4~~-2~~--|
|-------------------------------------------------|
|-------------------------------------------------|
|-------------------------------------------------|
|-------------------------------------------------|


CHORUS 3
|-------------------------------------|
|-------------------------------------|
|---------6------------6---------6----|
|-6-------6----6-------6----4----6----|
|-6-------4----6-------4----4----4----|
|-4---4-7------4---4-7------2---------|

|--------------------------------|
|--------------------------------|
|---------6------------6---------|
|-6-------6----6-------6----4----|
|-6-------4----6-------4----4----|
|-4---4-7------4---4-7------2----|


BRIDGE 3
                    x4
|---------------------|
|---------------------|
|------4-----6--------|
|-6----4--4--6--------|
|-6----2--4--4--------|
|-4-------2-----------|

 Lead                                           x4
|-------------------------------------------------|
|-12/14--12\9--9/12--9\7--7/9--7\4--4/7--4~~-2~~--|
|-------------------------------------------------|
|-------------------------------------------------|
|-------------------------------------------------|
|-------------------------------------------------|

Fade out and continue playing the lead but let the rhythm sustain/end
  development and support by
dmitry ivanov