rock
 
|tablatures   |lyrics   |discussion forums   |more tabs @ XGuitar.com

Smashing Pumpkins tabs

The Sacred And Profane bass tab

Title: The Sacred + Profane
Artist: The Smashing Pumpkins
Album: MACHINA/the machines of God
Tuning: Eb Ab Db Gb


Intro
G -------------
D -------------
A -------------
E 7---2---7---2

Verses
G --------------------------------
D --------------------------------
A --------------------------------
E 7---2---7---2---7---9---0---2---

Chorus 
G ------------------------------
D ------------------------------
A 4------2-4------2-4-------4---
E ----4--------4--------2-------


G --------------------------------------
D --------------------------------------
A --------2-2-2------------2-4-4-2-4-2-0
E 4--4--4-------2-2-2-0-0---------------


The rest of the song is just basically playing the above riffs...until you reach the outro


Outro
G ----------------
D ----------------
A ---2-4-4-2-4-4-4
E 0---------------


-Syrial Carpens
do not use without permission
  development and support by
dmitry ivanov