rock
 
|tablatures   |lyrics   |discussion forums   |more tabs @ XGuitar.com

Smashing Pumpkins tabs

The Mercury Tree guitar tab

X===============================PLEASE NOTE==============================X
X  This tab is all my own and represents my interpretation of the song.  X
X You may only use this tab for private study, scholarship, or research. X
X  Do not change, deface, mutilate, or in any other way alter this tab.  X
X   You must email me first if you want to use this tab on your site.    X
X========================================================================X


*The Mercury Tree*
Transcribed by Obscured@san.rr.com
Http://home.san.rr.com/obscured


Tuning: Eb Ab Db Gb Bb Eb


INTRO

Keyboard arranged for guitar
                   x2
|-5-8-5-----------5--|
|-------8-5----8-----|
|--------------------|
|--------------------|
|--------------------|
|--------------------|

 Guitar 1             x2
|-------7----------8----|
|-----5----------6------|
|---5----------7--------|
|-7---------------------|
|------------8----------|
|-----------------------|
|Guitar 2             x2
|-0----------------0----|
|-1---------------------|
|-2--------------2------|
|-2------------3--------|
|-0----------5----------|
|-----------------------|


VERSE

 Guitar 1             x3
|-------7----------8----|
|-----5----------6------|
|---5----------7--------|
|-7---------------------|
|------------8----------|
|-----------------------|
|Guitar 2             x3
|-0----------------0----|
|-1---------------------|
|-2--------------2------|
|-2------------3--------|
|-0----------5----------|
|-----------------------|


CHORUS

 Guitar 1             x2
|-----------------------|
|-----5-8--------5/8----|
|---5----------5--------|
|-5----------7----------|
|-----------------------|
|-----------------------|
|Guitar 2             x2
|-3----------1----------|
|-3----------1----------|
|-4----------2----------|
|-5----------3----------|
|-5----------3----------|
|-3----------1----------|


VERSE 2

 Guitar 1             x5
|-------7----------8----|
|-----5----------6------|
|---5----------7--------|
|-7---------------------|
|------------8----------|
|-----------------------|
|Guitar 2             x5
|-0----------------0----|
|-1---------------------|
|-2--------------2------|
|-2------------3--------|
|-0----------5----------|
|-----------------------|


CHORUS 2

 Guitar 1             x2
|-----------------------|
|-----5-8--------5/8----|
|---5----------5--------|
|-5----------7----------|
|-----------------------|
|-----------------------|
|Guitar 2             x2
|-3----------1----------|
|-3----------1----------|
|-4----------2----------|
|-5----------3----------|
|-5----------3----------|
|-3----------1----------|


INTERLUDE

 Guitar 1             x4
|-------7----------8----|
|-----5----------6------|
|---5----------7--------|
|-7---------------------|
|------------8----------|
|-----------------------|
|Guitar 2             x4
|-0----------------0----|
|-1---------------------|
|-2--------------2------|
|-2------------3--------|
|-0----------5----------|
|-----------------------|

 Guitar 3 (enter on 3rd time)
|---------------------------------------------------------------------|
|----------------------------------------------------------13b15~~~~--|
|-2------------------------------------------------/14~~~~------------|
|-2----/7-10-7-10-7~~~~----/7~~~~-7\5--/14----------------------------|
|-0----------------------------------------12~~~~---------------------|
|---------------------------------------------------------------------|


CHORUS 3

 Guitar 1             x2
|-----------------------|
|-----5-8--------5/8----|
|---5----------5--------|
|-5----------7----------|
|-----------------------|
|-----------------------|
|Guitar 2             x2
|-3----------1----------|
|-3----------1----------|
|-4----------2----------|
|-5----------3----------|
|-5----------3----------|
|-3----------1----------|
|Guitar 3             x2
|-----------------------|
|-----------------------|
|-----------------------|
|-5----------3----------|
|-5----------3----------|
|-3----------1----------|


VERSE 3/OUTRO

 Guitar 1             x8
|-------7----------8----|
|-----5----------6------|
|---5----------7--------|
|-7---------------------|
|------------8----------|
|-----------------------|
|Guitar 2             x8
|-0----------------0----|
|-1---------------------|
|-2--------------2------|
|-2------------3--------|
|-0----------5----------|
|-----------------------|

 Guitar 3
|-----------------------|
|-----------------------|
|-2---------------------|
|-2---------/7~~~~------|
|-0---------/8~~~~------|
|--------------------\\-|

|---------------------|
|---------------------|
|-2-------------------|
|-2--------12/14~~~~--|
|-0-------------------|
|---------------------|

|---------------------------------|
|----------------13h15b17r15p13~~-|
|-2-------------------------------|
|-2-------------------------------|
|-0-------------------------------|
|------------1~~------------------|

|---------------------|
|---------------------|
|-2----5/7~~----------|
|-2----------3--------|
|-0----------3--------|
|------------1--------|

|-------------------|
|-------------------|
|-2-----------------|
|-2--------3--------|
|-0--------3--------|
|----------1--------|

|------------------------------|
|----------------13b15~~r13~~--|
|-2----/14p12~~----------------|
|-2----------------------------|
|-0----------------------------|
|------------------------------|

                  x2
|-------------------|
|-------------------|
|-2-----------------|
|-2--------3--------|
|-0--------3--------|
|----------1--------|

End on
|------------------|
|------------------|
|-2----------------|
|-2----------------|
|-0----------------|
|------------------|

Fade out...
  development and support by
dmitry ivanov