rock
 
|tablatures   |lyrics   |discussion forums   |more tabs @ XGuitar.com

Smashing Pumpkins tabs

The Imploding Voice guitar tab

X===============================PLEASE NOTE==============================X
X  This tab is all my own and represents my interpretation of the song.  X
X You may only use this tab for private study, scholarship, or research. X
X  Do not change, deface, mutilate, or in any other way alter this tab.  X
X   You must email me first if you want to use this tab on your site.    X
X========================================================================X


*The Imploding Voice*
Transcribed by Obscured@san.rr.com
Http://home.san.rr.com/obscured


Tuning: C G C F A D


INTRO/VERSE
                            x3
|-----------------------------|
|-----------------------------|
|-----------------------------|
|-5-5--5-5--5-5--5-5--5-5-5-5-|
|-5-5--5-5--5-5--5-5--5-5-5-5-|
|-5-5--5-5--5-5--5-5--5-5-5-5-|

|-----------------------------|
|-----------------------------|
|-----------------------------|
|-4-4--4-4--4-4--4-4--4-4-4-4-|
|-2-2--2-2--2-2--2-2--2-2-2-2-|
|-4-4--4-4--4-4--4-4--4-4-4-4-|

|-----------------------------|
|-----------------------------|
|-----------------------------|
|-5-5--5-5--5-5--5-5--5-5-5-5-|
|-3-3--3-3--3-3--3-3--3-3-3-3-|
|-5-5--5-5--5-5--5-5--5-5-5-5-|

|-----------------------------|
|-----------------------------|
|-----------------------------|
|-7-7--7-7--7-7--7-7--7-7-7-7-|
|-7-7--7-7--7-7--7-7--7-7-7-7-|
|-7-7--7-7--7-7--7-7--7-7-7-7-|

|-----------------------------|
|-----------------------------|
|-----------------------------|
|-7-7--7-7--7-7--7-7--7-7-7-7-|
|-5-5--5-5--5-5--5-5--5-5-5-5-|
|-7-7--7-7--7-7--7-7--7-7-7-7-|

|-----------------------------|
|-----------------------------|
|-----------------------------|
|-7-7--7-7--7-7--7-7--7-7-7-7-|
|-7-7--7-7--7-7--7-7--7-7-7-7-|
|-7-7--7-7--7-7--7-7--7-7-7-7-|

|-----------------------------|
|-----------------------------|
|-----------------------------|
|-5-5--5-5--5-5--5-5--5-5-5-5-|
|-3-3--3-3--3-3--3-3--3-3-3-3-|
|-5-5--5-5--5-5--5-5--5-5-5-5-|

|----------------|
|----------------|
|----------------|
|-5-5--5-5-------|
|-5-5--5-5-------|
|-5-5--5-5--\\\\-|


PRECHORUS
|--------------------------------------|
|--------------------------------------|
|--------------------------------------|
|-1----2----5-5--5-5--5-5--5-5---------|
|-1----2----5-5--5-5--5-5--5-5--2-3-2~-|
|-1----2----5-5--5-5--5-5--5-5---------|

|-----------|
|-----------|
|-----------|
|-1----2----|
|-1----2----|
|-1----2----|


CHORUS
|--------------------------------------------------------------------------|
|--------------------------------------------------------------------------|
|--------------------------------------------------------------------------|
|-7--------5--------7--------5----(7)-0----5--------5----(7)-0----7--------|
|-7--------5--------7--------5----(7)-0----3--------5----(7)-0----7--------|
|-7--------5--------7--------5----(7)-0----5--------5----(7)-0----7--------|


VERSE 2
|-----------------------------|
|-----------------------------|
|-----------------------------|
|-5-5--5-5--5-5--5-5--5-5-5-5-|
|-5-5--5-5--5-5--5-5--5-5-5-5-|
|-5-5--5-5--5-5--5-5--5-5-5-5-|

|-----------------------------|
|-----------------------------|
|-----------------------------|
|-4-4--4-4--4-4--4-4--4-4-4-4-|
|-2-2--2-2--2-2--2-2--2-2-2-2-|
|-4-4--4-4--4-4--4-4--4-4-4-4-|

|-----------------------------|
|-----------------------------|
|-----------------------------|
|-5-5--5-5--5-5--5-5--5-5-5-5-|
|-3-3--3-3--3-3--3-3--3-3-3-3-|
|-5-5--5-5--5-5--5-5--5-5-5-5-|

                            x2
|-----------------------------|
|-----------------------------|
|-----------------------------|
|-5-5--5-5--5-5--5-5--5-5-5-5-|
|-5-5--5-5--5-5--5-5--5-5-5-5-|
|-5-5--5-5--5-5--5-5--5-5-5-5-|

|-----------------------------|
|-----------------------------|
|-----------------------------|
|-2-2--2-2--2-2--2-2--2-2-2-2-|
|-2-2--2-2--2-2--2-2--2-2-2-2-|
|-2-2--2-2--2-2--2-2--2-2-2-2-|

|-----------------------------|
|-----------------------------|
|-----------------------------|
|-1-1--1-1--1-1--1-1--1-1-1-1-|
|-1-1--1-1--1-1--1-1--1-1-1-1-|
|-1-1--1-1--1-1--1-1--1-1-1-1-|


PRECHORUS 2
                                   x3
|------------------------------------|
|------------------------------------|
|------------------------------------|
|-0-0-10h12-12~~-0-0---0-0-0-2-2-2-2-|
|-0-0-10h12-12~~-0-0---0-0-0-2-2-2-2-|
|-0-0-10h12-12~~-0-0---0-0-0-2-2-2-2-|


CHORUS 2
|--------------------------------------------------------------------------|
|--------------------------------------------------------------------------|
|--------------------------------------------------------------------------|
|-7--------5--------7--------5----(7)-0----5--------5----(7)-0----5--------|
|-7--------5--------7--------5----(7)-0----3--------5----(7)-0----3--------|
|-7--------5--------7--------5----(7)-0----5--------5----(7)-0----5--------|


BRIDGE
                             x7
|------------------------------|
|------------------------------|
|------------------------------|
|-0-0-0--0-0--0--0-0-0-2-2-2-2-|
|-0-0-0--0-0--0--0-0-0-2-2-2-2-|
|-0-0-0--0-0--0--0-0-0-2-2-2-2-|

|-------------------------|
|-------------------------|
|----0-----0-----2-----2--|
|-1-----2-----3-----4-----|
|-1-----2-----3-----4-----|
|-1-----2-----3-----4-----|

|-------|
|-------|
|-------|
|-X\\\\-|
|-X\\\\-|
|-X\\\\-|


VERSE 3
|-----------------------------|
|-----------------------------|
|-----------------------------|
|-5-5--5-5--5-5--5-5--5-5-5-5-|
|-5-5--5-5--5-5--5-5--5-5-5-5-|
|-5-5--5-5--5-5--5-5--5-5-5-5-|

|-----------------------------|
|-----------------------------|
|-----------------------------|
|-4-4--4-4--4-4--4-4--4-4-4-4-|
|-2-2--2-2--2-2--2-2--2-2-2-2-|
|-4-4--4-4--4-4--4-4--4-4-4-4-|

|-----------------------------|
|-----------------------------|
|-----------------------------|
|-5-5--5-5--5-5--5-5--5-5-5-5-|
|-3-3--3-3--3-3--3-3--3-3-3-3-|
|-5-5--5-5--5-5--5-5--5-5-5-5-|

|-----------------------------|
|-----------------------------|
|-----------------------------|
|-7-7--7-7--7-7--7-7--7-7-7-7-|
|-7-7--7-7--7-7--7-7--7-7-7-7-|
|-7-7--7-7--7-7--7-7--7-7-7-7-|

|-----------------------------|
|-----------------------------|
|-----------------------------|
|-7-7--7-7--7-7--7-7--7-7-7-7-|
|-5-5--5-5--5-5--5-5--5-5-5-5-|
|-7-7--7-7--7-7--7-7--7-7-7-7-|

|-----------------------------|
|-----------------------------|
|-----------------------------|
|-7-7--7-7--7-7--7-7--7-7-7-7-|
|-7-7--7-7--7-7--7-7--7-7-7-7-|
|-7-7--7-7--7-7--7-7--7-7-7-7-|

|-----------------------------|
|-----------------------------|
|-----------------------------|
|-5-5--5-5--5-5--5-5--5-5-5-5-|
|-3-3--3-3--3-3--3-3--3-3-3-3-|
|-5-5--5-5--5-5--5-5--5-5-5-5-|

|----------------|
|----------------|
|----------------|
|-5-5--5-5-------|
|-5-5--5-5-------|
|-5-5--5-5--\\\\-|


PRECHORUS 3
|--------------------------------------|
|--------------------------------------|
|--------------------------------------|
|-1----2----5-5--5-5--5-5--5-5---------|
|-1----2----5-5--5-5--5-5--5-5--2-3-2~-|
|-1----2----5-5--5-5--5-5--5-5---------|

|-----------|
|-----------|
|-----------|
|-1----2----|
|-1----2----|
|-1----2----|


CHORUS 3
|--------------------------------------------------------------------------|
|--------------------------------------------------------------------------|
|--------------------------------------------------------------------------|
|-7--------5--------7--------5----(7)-0----5--------5----(7)-0----5--------|
|-7--------5--------7--------5----(7)-0----3--------5----(7)-0----3--------|
|-7--------5--------7--------5----(7)-0----5--------5----(7)-0----5--------|


BRIDGE 2/OUTRO
                             x7
|------------------------------|
|------------------------------|
|------------------------------|
|-0-0-0--0-0--0--0-0-0-2-2-2-2-|
|-0-0-0--0-0--0--0-0-0-2-2-2-2-|
|-0-0-0--0-0--0--0-0-0-2-2-2-2-|

End on
|---------------|
|---------------|
|---------------|
|-0-0-0--0-0----|
|-0-0-0--0-0----|
|-0-0-0--0-0----|
  development and support by
dmitry ivanov