rock
 
|tablatures   |lyrics   |discussion forums   |more tabs @ XGuitar.com

Smashing Pumpkins tabs

The Everlasting Gaze guitar tab

X===============================PLEASE NOTE==============================X
X  This tab is all my own and represents my interpretation of the song.  X
X You may only use this tab for private study, scholarship, or research. X
X  Do not change, deface, mutilate, or in any other way alter this tab.  X
X   You must email me first if you want to use this tab on your site.    X
X========================================================================X


*The Everlasting Gaze*
Transcribed by Obscured@san.rr.com
Http://home.san.rr.com/obscured


Tuning: C F A# D# G C


INTRO
                  x2
|-------------------|
|-------------------|
|-------------------|
|-------------------|
|-----2h3-----------|
|-0-0-----1--1-0----|

                                x3
|---------------------------------|
|---------------------------------|
|----------------/9-9-9-9-9-9~~~~-| <- with slight variations here
|---------------------------------|
|-----2h3-------------------------|
|-0-0-----1--1-0------------------|

|-------------------|
|-------------------|
|-------------------|
|-------------------|
|-----2h3-----------|
|-0-0-----1--1-0----|


VERSE - Guitars tacet for a few bars then come back with the following

|-------------|
|-------------|
|-9-9-9-9~~~~-|
|-------------|
|-------------|
|-------------|

                                x3
|---------------------------------|
|---------------------------------|
|----------------/9-9-9-9-9-9~~~~-| <- with slight variations here
|---------------------------------|
|-----2h3-------------------------|
|-0-0-----1--1-0------------------|


PRECHORUS
                             x2
|------------------------------|
|------------------------------|
|------------------------------|
|-------------------------/7~~-|
|------------------------------|
|-0-7~~-0-5~~-0-3~~--0--1------|

|-------------------|
|-------------------|
|-------------------|
|-------------------|
|-------------------|
|-0-7~~-0-5~~-0-3~~-|


CHORUS
                    x2
|---------------------|-------------------------------|
|---------------------|-------------------------------|
|------7--------------|----------------7--------------|
|-5----7----7----7----|-7----7----5----7----7----7----|
|-5----5----7----7----|-7----7----5----5----7----7----|
|-3---------5----5----|-5----5----3---------5----5----|

|---------------------|---------------------------------|
|---------------------|---------------------------------|
|-5--------------9----|------7---------/9-9-9-9-9-9~~~~-|
|-5----5----7----9----|-5----7----7---------------------|
|-3----5----7----7----|-5----5----7---------------------|
|------3----5---(0)---|-3---------5---------------------|

                                x2
|---------------------------------|
|---------------------------------|
|----------------/9-9-9-9-9-9~~~~-| <- with slight variations here
|---------------------------------|
|-----2h3-------------------------|
|-0-0-----1--1-0------------------|

|-------------------|
|-------------------|
|-------------------|
|-------------------|
|-----2h3-----------|
|-0-0-----1--1-0----|


VERSE 2 - Guitars tacet for a few bars then come back with the following

|-------------|
|-------------|
|-9-9-9-9~~~~-|
|-------------|
|-------------|
|-------------|

                                x3
|---------------------------------|
|---------------------------------|
|----------------/9-9-9-9-9-9~~~~-| <- with slight variations here
|---------------------------------|
|-----2h3-------------------------|
|-0-0-----1--1-0------------------|


PRECHORUS 2
                             x2
|------------------------------|
|------------------------------|
|------------------------------|
|-------------------------/7~~-|
|------------------------------|
|-0-7~~-0-5~~-0-3~~--0--1------|

|-------------------|
|-------------------|
|-------------------|
|-------------------|
|-------------------|
|-0-7~~-0-5~~-0-3~~-|


CHORUS 2
                    x2
|---------------------|-------------------------------|
|---------------------|-------------------------------|
|------7--------------|----------------7--------------|
|-5----7----7----7----|-7----7----5----7----7----7----|
|-5----5----7----7----|-7----7----5----5----7----7----|
|-3---------5----5----|-5----5----3---------5----5----|

|---------------------|---------------------------------------|
|---------------------|---------------------------------------|
|-5--------------9----|------7---------/9-9-9-9-9-9~~~~-9\\\\-|
|-5----5----7----9----|-5----7----7--------------------(9)\\\-|
|-3----5----7----7----|-5----5----7---------------------7\\\\-|
|------3----5---(0)---|-3---------5---------------------0-----|


BRIDGE - Everything tacet except for the lovely whining


PRECHORUS 3
                             x6
|------------------------------|
|------------------------------|
|------------------------------|
|-------------------------/7~~-|
|------------------------------|
|-0-7~~-0-5~~-0-3~~--0--1------|

|---------------------|
|---------------------|
|---------------------|
|---------------------|
|---------------------|
|-0-7~~-0-5~~-0-3~~~~-|


OUTRO
                                x4
|---------------------------------|
|---------------------------------|
|---------------------------------|
|---------------------------------|
|---------------------------------|
|-0-0---0-0---0-0---0-0---0-0-0-0-|

                                                                            x4
|-----------------------------------------------------------------------------|
|-----------------------------------------------------------------------------|
|-----------------------------------------------------------------------------|
|---------7~~~~---------------------------------7~~~~-------------------------|
|-------------------5h7-----5h7---------------------------5h7-----5h7-----8p7-|
|-0-0---0-------0-0-----(0)-----(0)-8p7-0-0---0-------0-0-----(0)-----(0)-----|

End on
|-------|
|-------|
|-9\\\\-|
|-9\\\\-|
|-7\\\\-|
|-0-----|
  development and support by
dmitry ivanov