rock
 
|tablatures   |lyrics   |discussion forums   |more tabs @ XGuitar.com

Smashing Pumpkins tabs

Tales Of A Scorched Earth guitar tab

Song:    Tales of a Scorched Earth
 Release: MC&IS
 Artist:  The Smashing Pumpkins
 Author:  Michael Gartley
 Tuning:  1 step down (D,G,C,F,A,D) ?

Comments: Tune down 1 whole step Billy and James may use different
	  chord voicings, but I think the chords are basically the 
          same.  Also, this song is really quick, so its hard to 
          get a good feel for whats being played, but this is what 
          I've been played since I got the disc a few months back.

intro (and bridge):
e---------------------------------------
b---------------------------------------
g---------------------------------------
d---------------------------------------
a----4-----4-----4-----4---4---4--------
e--0h2-0-0h2-0-0h2-0-0h2-0h2-0h2--------


pre-verse:
e-------------------|----------------|-------
b-------------------|----------------|-----2-
g-------------------|----------------|-7---2-
d---9--9-9-12/13-14-|--9--9-9-5/6-7--|-7---2-
a---7--7-7-10/11-12-|--7--7-7-3/4-5--|-5-5-0-
e---0--0-0----------|--0--0-0--------|---3-0-
				      play 4th
				      time then
				"Farewell Goodn.."
				
pre-chorus:
E	   G	  C		   A
inside the future of our shattered pasts

chorus: 
(I lie just to be real, and I die just to feel etc.)
e---------------------------------------------
b---------------------------------------------
g---------9---------11---------13----------14-
d---------------------------------------------
a---------7---------9----------11----------12-
e-0-0-0-0---0-0-0-0----0-0-0-0-----0-0-0-0----

e---------------------------------------------
b---------------------------------------------
g---------4---------6----------7-----------9--
d---------------------------------------------
a---------2---------4----------5-----------7--
e-0-0-0-0---0-0-0-0----0-0-0-0-----0-0-0-0----
b
  development and support by
dmitry ivanov