rock
 
|tablatures   |lyrics   |discussion forums   |more tabs @ XGuitar.com

Smashing Pumpkins tabs

Starla guitar tab

 Song:    Starla
 Release: Pisces Iscariot
 Artist:  The Smashing Pumpkins
 Author:  1. Kelly Kristek
          2. Joseph Grove 
          3. Patrick Taylor 

 Tuning:  standard


  This is the clean beginning then just add
  distortion and you have the chorus i guess is
  what you would call it...

e:------------------------------------------------|
B:------------------------------------------------|
G:------------------------------------------------|
D:--11-11--12-12--14-14--16-16--17-17-17-17-17-17-|
A:---0--0---0--0---0--0---0--0---0--0--0--0--0--0-|
E:------------------------------------------------|

  play these towards the end under the
  4 minute  long solo...there is no strum
  Time here  just listen to the record..

e:-----------------------------------------------|
B:-----------------------------------------------|
G:-----------------------------------------------|
D:-----5-5-5---7-7-7--9-9-9--12-12-12---14-14-14-|
A:-----5-5-5---7-7-7--9-9-9--12-12-12---14-14-14-|
E:-----3-3-3---5-5-5--7-7-7--10-10-10---12-12-12-|

  This is the soft i guess bridge 1  There is some kind of
  Just alternate these two chords    Small bridge in the dis-
                                     tortion that goes like this.

e:---------------------------------|-----------------------------|
B:--2-2-2-2-2-2-----5-5-5-5-5-5----|-----------------------------|
G:--2-2-2-2-2-2-----0-0-0-0-0-0----|----7-7-7-7-7-7-7-7-7-7------|
D:--0-0-0-0-0-0-----4-4-4-4-4-4----|----7-7-7-7-7-7-7-7-7-7------|
A:------------------5-5-5-5-5-5----|----5-5-5-5-5-5-5-5-5-5------|
E:---------------------------------|----5-5-5-5-5-5-5-5-5-5------|


---------------------------------------------------------------------

Version 2
---------

I think I have some better chords for the middle 8 of Starla: 

Tab: E A D G B E  
     5 4 5 0 5 0               (serve yourself, no-one) 
     X 5 4 0 5 0 / X 5 4 0 3 0 (else can do for you)  

Hope this is useful.

----------------------------------------------------------------------

Version 3
---------

The original tab was perfect until one day I was reading the official
Mellon Collie and the Infinite Sadness tab book and I came across the
actuall tab.  I mean the one Billy tabbed out himself.

Tab:     Starla
Tuning:  Standard
Author:  Patrick Taylor (well sort of)
Email:   "Cherryfirefly@geocities.com"  send all your hate mail here

Main Riff


e|-----------------------------------------------------------------------------
B|-----------------------------------------------------------------------------
G|-----------------------------11--11--12--12--12--12--12--12--12--12-12
D|-11--11--12--12--14--14--------------------------------------------------
A|--0---0---0----0---0---0----0---0---0---0---0----0----0---0---0----0--0
E|------------------------------------------------------------------------------


This should help you guys out.  Someone really needs to tab out the solos for it though.
  development and support by
dmitry ivanov