rock
 
|tablatures   |lyrics   |discussion forums   |more tabs @ XGuitar.com

Smashing Pumpkins tabs

Stand Inside Your Love guitar tab

X===============================PLEASE NOTE==============================X
X  This tab is all my own and represents my interpretation of the song.  X
X You may only use this tab for private study, scholarship, or research. X
X  Do not change, deface, mutilate, or in any other way alter this tab.  X
X   You must email me first if you want to use this tab on your site.    X
X========================================================================X


*Stand Inside Your Love*
Transcribed by Obscured@san.rr.com
Http://home.san.rr.com/obscured


Tuning: Eb Ab Db Gb Bb Eb


INTRO/VERSE
|---------------------------------------------------|
|----3------3------3------3----3------3-----3-----3-|
|------0------0------------------0------0-----------|
|-4------4------4-------4---4------4------4-----4---|
|---------------------------------------------------|
|--------------------0------------------------0-----|

|------------------------------------------0--------|
|----3------3------3------------3----------0--------|
|------2------2-----------2-------2----2------------|
|--------0------0-------2-----------0--2------------|
|-2------------------0-------2---------0------------|
|---------------------------------------------------|



PRECHORUS
G Bm Dsus Asus
G Bm Dsus Asus


CHORUS
Em Em Dsus Asus
Em Em Dsus Asus
Em Em Dsus Asus
Em


VERSE 2
|---------------------------------------------------|
|----3------3------3------3----3------3-----3-----3-|
|------0------0------------------0------0-----------|
|-4------4------4-------4---4------4------4-----4---|
|---------------------------------------------------|
|--------------------0------------------------0-----|

|------------------------------------------0--------|
|----3------3------3------------3----------0--------|
|------2------2-----------2-------2----2------------|
|--------0------0-------2-----------0--2------------|
|-2------------------0-------2---------0------------|
|---------------------------------------------------|


PRECHORUS 2
G Bm Dsus Asus
G Bm Dsus Asus


CHORUS 2
Em Em Dsus Asus
Em Em Dsus Asus

                         x2
|----------------0----0----|
|----------------3----0----|
|-12----11--7----2----2----|
|----------------0----2----|
|-10----9---5---------0----|
|--------------------------|


SOLO
Em Em Dsus Asus
Em Em Dsus Asus

 Lead - with ebow+ set to harmonic mode
|--------------------------------------------------------------------------------------------------|
|--------------------------------------------------------------------------------------------------|
|-11~~~~~~~~~~~~~~/14~~~~\9~~~~\7~\4~~\2~~~~~~~~~/16~~~~~~~\14~~~~~~~/19~~/21~~~~~~~\14~~~~~~~~----|
|--------------------------------------------------------------------------------------------------|
|--------------------------------------------------------------------------------------------------|
|--------------------------------------------------------------------------------------------------|


CHORUS 3/OUTRO
Em Em Dsus Asus
Em Em Dsus Asus
G Bm Dsus Asus
G Bm Dsus Asus
Em Em Dsus Asus
Em Em Dsus Asus
Em Em Dsus Asus

End on Em



---Chords

  Asus Bm Dsus Em G
|--0---2---0---0--3--|
|--0---3---3---0--3--|
|--2---4---2---0--0--|
|--2---4---0---2--0--|
|--0---2-------2--2--|
|--------------0--3--|
  development and support by
dmitry ivanov