rock
 
|tablatures   |lyrics   |discussion forums   |more tabs @ XGuitar.com

Smashing Pumpkins tabs

Soothe guitar tab

 Song:    Soothe
 Release: Pisces Iscariot, Disarm single
 Artist:  The Smashing Pumpkins
 Author:  Peter Webber (bp479@yfn.ysu.edu, webber4@ix.netcom.com)
 Tuning:  standard ??


chords: |XX133X|  |X3103X|  |3X003X|  |4X004X|

I saw a lot of partial tabs for Soothe. Parts of them were right 
and parts were wrong so I wanted to make a complete one covering 
the entire song. There is basically one main riff but Billy makes 
little variations nearly everytime he plays thorugh it. I'm not 
completely sure about the ending so please get back to me if 
you think it is wrong. Thanks to Brian McCall for giving me a 
place to start. Near the end around 2:13 you can hear the morning 
buses going by Billy's apartment so don't mistake it for a guitar

|--------------------------------------------------------------
|-3-----3-------3---------3---------3-------------3------------
|---3-----3---3---3---3-----3-----0---0---0-----0-0-0---0------
|-1---1-1---1---1---1---1-1-----1-------1-----0-------0--------
|-----------------------------3--------------------------------
|-------------------------------------------3------------------

|--------------------------------------------------------------
|-3-----3-------3---------3---------3-------------3------------
|---3-----3---3---3---3-----3-----0---0---0-----0-0-0---0------
|-1---1-1---1---1---1---1-1-----1-------1-----0-------0--------
|-----------------------------3--------------------------------
|-------------------------------------------3------------------

|--------------------------------------------------------------
|-3-----------3---------3---------3-------------3--------------
|---3---3---3---3---3-----3-----0---0---0-----0-0-0---0--------
|-1---1---1---1---1---1-1-----1-------1-----0-------0----------
|---------------------------3----------------------------------
|-----------------------------------------3--------------------
  hungry      hungry     again
	
							
|--------------------------------------------------------------
|-3-----------3-----------------3------------------------------
|---3---3---3---3---3---3-----0---0---0-----0-----0---0--------
|-1---1---1---1---1---1-----1-------1-----0-----0---0----------
|-------------------------3------------------------------------
|---------------------------------------3-----3----------------
  hungry      hungry     again			  when will


|--------------------------------------------------------------
|-------4-----------------3-------------4----------------------
|-----0-------0-----0---0---0---0-----0---0--------------------
|---0-------0-----0---0-------0-----0-------0------------------
|--------------------------------------------------------------
|-4-------------3-----------------4-----------4-6--------------
  it  stop  to  sway 	  when will it stop to almost break you
 

|--------------------------------------------------------------
|-3---------3-----------------3-------------3------------------
|---3---3-----3---3---3-----0---0---0-----0---0---0------------
|-1---1---1-1---1---1-----1-------1-----0-------0--------------
|-----------------------3--------------------------------------
|-------------------------------------3------------------------
  hungry  hungry again


|--------------------------------------------------------------
|-3-------------------------------3-------------3--------------
|---3---3---3---3---3---3-------0---0---0-----0---0---0--------
|-1---1---1---1---1---1---1---1-------1-----0-------0----------
|---------------------------3----------------------------------
|-----------------------------------------3--------------------
  hungry  hungry again						


|--------------------------------------------------------------
|-3---------3---------------------3------------------3---------
|---3---3-----3---3---3-------0-----0---0----0-----0---0-------
|-1---1---1-----1---1---1---1---1-----1----0-----0-------0-----
|-------------------------3------------------------------------
|-----------------------------------------3----3---------------
  i'll miss you			 i don't wish you luck
	
		
|--------------------------------------------------------------
|-3-----------3------------------------------------------------
|---3---3---3---3---3---3-------0---0---0-------0-----0---0----
|-1---1---1-------1---1---1---1---1---1---1---0-----0---0------
|---------------------------3----------------------------------
|-------------------------------------------3-----3------------
  well i forgive you		 i don't wish you   a-




|--------------------------------------------------------------
|-------4-------------3-------------4------------------6-------
|-----0---0---0-----0---0---0-----0---0---------0----0---------
|---0-------0-----0-------0-----0-------0-----0---0------------
|--------------------------------------------------------------
|-4-------------3-------------4-----------4-6------------------
  way           away         away    it'll almost break you


|--------------------------------------------------------------
|------4-------------3-------------4-------------6-------------
|----0-0-0---0-----0-0-0---0-----0-0-0---0-----0---0---0-------
|--0-------0-----0-------0-----0-------0-----0-------0---------
|--------------------------------------------------------------
|-4------------3-------------4-------------6-------------------
 almost take you almost break you almost break you up.....


|-------------------------------------------------------------
|-------4-------------3---------------------------------------
|-----0---0---0-----0---0---0---------------------------------
|---0-------0-----0-------0-----------------------------------
|-------------------------------------------------------------
|-4-------------3---------------------------------------------


|---------------------------------------------
|--3-----3-------------3-------3-----3--------
|--0---0---0---0-------0-0---0---0---0--------
|--1-1-------0-0-------1---1-------0-0--------  	
|--3-----------x-------3-------------x--------      
|--------------3-3-3-3---------------3-3-3-3--     
										
						
|---------------------------------------------
|----------3-------------------3-------3------
|--0-0---0---0-----0---------0-0-0---0---0----
|--1---1-------0---0-----1-----1---1-------0--
|--3---------------x--------------------------
|----------------3-3-3-3---3------------------
o
  development and support by
dmitry ivanov