rock
 
|tablatures   |lyrics   |discussion forums   |more tabs @ XGuitar.com

Smashing Pumpkins tabs

Smiley bass tab

Title: Smiley
Artist: Smashing Pumpkins
Album: Peel Sessions
Tuning: E A D G

Riff 1A
G|------------|
D|------------|
A|------------|
E|3--3--1--1--|

sometimes continue to:
Riff 1B
G|---------------------|
D|---------------------|
A|---------------------|
E|0-0-0-0-0-0-0h1-0h3--|

Riff 2
G|-----------------|
D|-----------------|
A|--------0-0-3-3--|
E|1-1-1-1----------|

I found that you sometimes have to skip the F's at the 
beginning.

And you end with this instead of Riff 1A
G|------------|
D|------------|
A|5--5--3--3--|
E|------------|

End on D. and thats it

--------------
Tab was made by: Nathan Amber, take it if you want it...just enjoy..
hope you like it!! E-mail me if you have a better way of playing it!
  development and support by
dmitry ivanov