rock
 
|tablatures   |lyrics   |discussion forums   |more tabs @ XGuitar.com

Smashing Pumpkins tabs

Slow Dawn bass tab

Title: Slow Dawn
Artist: The Smashing Pumpkins
Album: MACHINA II/friends and enemies of modern music
Tuning: E A D G
tabbed by: Mandy Jewell 

Verse 1: 
G -------------------------------------------------
D -------------------------------------------------
A -------------------------------------------------
E --2-0-4-2--2-2-0-0-4-4-2--2-0-0-4-2-2-5-5-5-5----

bridge: 
G -------------------------------
D -------------------------------
A 2-2-2-2--------2-2-2-2---------
E --------2-2-0----------2-2-0---

Chorus: 
G --------------------------------------------------
D --------------------------------------------------
A --------------------------------------------------
E 4-4-4-2-0--0-4-2--2-2-0-0--4-4-2--2-2-2-0-0-4-2-2-

bridge:
G ------------------------------
D ------------------------------
A 2-2-2-2--------2-2-2-2--------
E --------2-2-0----------2-2-0--


G ------------
D ------------
A -0----2-0---
E ---2--------

Solo: this could be a variety of things, but I play this:

G ---------------------------
D ---------------------------
A 0-4----2--0-0-2---2-0------
E ----4----2------4-----0----


G -------------------------
D -------------------------
A 4----2-2----2-----2-2----
E --4-4----2----0-0----2---

(the rest of the solo play:...)
G ----------------------
D ----------------------
A ----------------------
E 2-2-2-0-0-4-4-4-2-2---


G -----------------------------------------
D -----------------------------------------
A -----------------------------------------
E -2-0-4-2--2-2-0-0-4-4-2--2-2-2-0-0-4-2---


G ---------------
D ---------------
A ---------------
E 2-0-0-4-2------ (3x)
  development and support by
dmitry ivanov