rock
 
|tablatures   |lyrics   |discussion forums   |more tabs @ XGuitar.com

Smashing Pumpkins tabs

Silverfuck bass tab

Title: Silverfuck
Artist: The Smashing Pumpkins
Album: Siamese Dream
Tuning: Drop D

First it's just the guitar, then drums and Bass come in:

Riff 1
G|--------------------|
d|--------------------| 
A|5-----5-------------|
D|--0-0--0h0h0h0h0h0--|

Play this, and when the guitars go out, continue with it.

Then the chorus:

Riff 2
G|---------------|
d|---------------|
A|5-------5------|
D|----5-------5--|

Then somewhere in there you hold a
G I think.  Anyway, after it goes
totally quiet play if you use a
pick, use you fingers here:

Riff 3
G|---------------|
d|---------------|
A|5-------5------|
D|----0-------0--|

This song is kind of a jam, so play around with the rythms and stuff a little.
  development and support by
dmitry ivanov