rock
 
|tablatures   |lyrics   |discussion forums   |more tabs @ XGuitar.com

Smashing Pumpkins tabs

Rocket bass tab

Song Title: Rocket
Artist: Smashing Pumpkins
----------------------------------------------

This is a really great song so I just had to try and tab it

Normal Tuning
Verse
|-0-0-0--0-0--0---------0-0-0--0-0--0------------------|
|-------------------0h1-------------------oh1----------|
|---------------0h1-------------------0h1--------------|
|------------------------------------------------------|
the Oh1 part probably isn't right, but it sounds good and fills the gap.

Prechorus
|------------------------------------------------------|
|-3-3-3-3-3-3-3-3-3-3-3-3-3-3-3-3----------------------|
|------------------------------------------------------|
|------------------------------------------------------|
then go back and forth between the two above bars until the chorus:

Chorus

|-0-0-0-00-----------------0---0-----------------------|
|----------0-0-0-00--3-3-3---3-------------------------|
|--------------------------------3-3-3-3---------------|
|------------------------------------------------------|
you also play that until the end and at the end hit the G string open three times

Hope you enjoy it! More on the way!


Submitted by:  Adam Popovich
  development and support by
dmitry ivanov