rock
 
|tablatures   |lyrics   |discussion forums   |more tabs @ XGuitar.com

Smashing Pumpkins tabs

Raindrops And Sunshowers guitar tab

X===============================PLEASE NOTE==============================X
X  This tab is all my own and represents my interpretation of the song.  X
X You may only use this tab for private study, scholarship, or research. X
X  Do not change, deface, mutilate, or in any other way alter this tab.  X
X   You must email me first if you want to use this tab on your site.    X
X========================================================================X


*Raindrops and Sunshowers*
Transcribed by Obscured@san.rr.com
Http://home.san.rr.com/obscured


Tuning: Eb Ab Db Gb Bb Eb


INTRO - With delay

|------------------------------------------------------------------|
|------------------------------------------------------------------|
|------------------------------------------------------------------|
|-------4-2~~-----------4-2~~-----------4-2~~-------4-2~-----4-2~~-|
|-4-----------------------------0-0-------------0-0------0-0-------|
|---------------0-0------------------------------------------------|


Synth arranged for guitar:
C#m E A
G#m B E E
G#m B E


VERSE - Synth arranged for guitar

Bm D G G
Bm D G
F#m A D D
F#m A D


CHORUS - Synth arranged for guitar

C#m E A A
C#m E A
G#m B E E
G#m B E


VERSE 2 - Synth arranged for guitar

Bm D G G
Bm D G
F#m A D D
F#m A D
Em G D D
Em G D


CHORUS 2 - Synth arranged for guitar

C#m E A A
C#m E A
C#m B A A
C#m E A
G#m B E E
G#m B E


INTERLUDE - Synth arranged for guitar

C#m C#m B E
C#m C#m B E
C#m C#m B E
F#m A E
C#m E A
G#m B A


CHORUS 3 - Synth arranged for guitar

G#m B E
G#m B E
G#m B E
G#m B E
C#m E A
C#m E A
C#m E A A
G#m B E
G#m B E
G#m B E

Fade out...



---Chords

  A   B   Bm C#m D  E  Em F#m G G#m
|-0--(2)--2---4--2--0--0---2--3--4--|
|-2---4---3---5--3--0--0---2--3--4--|
|-2---4---4---6--2--1--0---2--0--4--|
|-2---4---4---6--0--2--2---4--0--6--|
|-0---2---2---4-----2--2---4--2--6--|
|-------------------0--0---2--3--4--|
  development and support by
dmitry ivanov