rock
 
|tablatures   |lyrics   |discussion forums   |more tabs @ XGuitar.com

Smashing Pumpkins tabs

Perfect bass tab

Smashing Pumpkins - Perfect
Album: Adore
Tabbed by Tw1ggy

Main Lick (intro and verses)
G-------------------------------------------------------------------------------
D-------------------------------------------------------------------------------
A-55--5-5-5--22-2-2-2--55-5-5-5--22-2-2-2-55-5-5-5--22-2-2-2----------77-7-7-7--
E-------------------------------------------------------------55-5-5-5----------
 (with variations

Prechorus
(But please, you know you're just like me)
G----------------------------------------------------------
D----------------2-2------------------------------22-2-2-2-
A-55--5-5-5--000-----55-5-5-5--55-5-5-5--00-0-0-0----------
E----------------------------------------------------------

Chorus is just an extended version of the main lick

The song is pretty much just that, with a few occasional variations

If you find any boo-boos, then email me at tw1ggy699@hotmail.com
  development and support by
dmitry ivanov