rock
 
|tablatures   |lyrics   |discussion forums   |more tabs @ XGuitar.com

Smashing Pumpkins tabs

Pennies guitar tab

#
#






Date: Mon, 18 Nov 1996 21:00:16 +0000
From: Christine Balogh 
Subject: Pennies Tab

-----------
  PENNIES- written by Billy Corgan
-----------  Performed by the Smashing Pumpkins(OF COURSE!)

 *** Transcription by David Balogh(dmb181@sierra.net)***

 	Hopefully the Pumpkins will not leave Mellon Collie as their last
album.
 I'm looking forward to their next release "Aeroplanes Fly High," which
I heard 
 about in Rolling Stone.  Pennies is a beautiful song off the "ZERO
SINGLE" and
 has two noticeable guitar parts.  I tabbed out the picking, and the
rest is 
 all chord listings.  (I HAVE THE CHORD FORMATIONS BELOW)

	"Bb6"        "Cadd9"        "Eb"          "G5"          "F5"
    X-1-3-0-3-X   X-3-5-0-5-X   X-6-8-0-8-X   3-5-5-X-X-X  
X-8-10-10-X-X

 INTRO-Guitar 1 w/light dist.
e[--------------------------------------------------------]
B[------3----------------8--------3----------------8------]
G[----------0-----0-------------------0-----0-------------]
D[----3---3-----5------8---8----3---3-----5------8---8----]
A[--1---------3-----/6--------1---------3-----/6----------]
E[--------------------------------------------------------]

-Play this once and then an acoustic enters strumming Bb6, Cadd9, and
Eb.

-The pre-chorus contains three chords also- F5(once), Cadd9(once), and
Eb.

-The small bridge between the pre-chorus and chorus is G5, C5, and Eb5.

-The CHORUS is Bb5, C5, and Eb5-(listen to the song for strumming
patterns).

THIS IS PLAYED 2 TIMES before the Outro, 

-The OUTRO is exactly like the verse- Bb6, Cadd9, and Eb.

	SONG ENDS ON Bb6................................

	                   ANY QUESTIONS OR COMMENTS?
		         Email me at dmb181@sierra.net

   Pete(GRANADA BOY)'s 3 rules about a car- It must have a big engine, a
300                     watt stereo, and........................
                     IT MUST ROLL SMOOTH AT 70 MPH!!!!!!!!!!!

Date: Wed, 25 Dec 1996 23:14:38 EST
From: Jason L Kelly 
Subject: Pennies by Smashing Pumpkins

PENNIES.TAB  by Smashing Pumpkins
Transcribed by Jason Kelly
Jizm@juno.com

Howdy ya'll guess what? This is that killer b-side to ZERO. You gotta
love
cuz man I do. I loved it so much I took the time to learn it. I found the
earlier tabs to this not accurate and I thought I could do better. Tell
me
what you think alright? I didn't match up the words with the tab just
right,
so don't get all crazy and stuff, just listen to the CD and you'll see
how
it goes. Alright well let's get to the tab.    Oh, by the way. I saw the
Pumpkins in
Little Rock, AR . They rocked. 


[This was created with TabIt version 1.19]

E :----------------|------------------|----------------|
B :--------2--------|------------------|-----2----------|
G :---------2------|---4--------7-----|--------2-------|
D :-----2-----2----|-4--------7-------|--2-------2-----|
A :--0------------2|-----2-/5---------|0-------------2-|
E :-----------------|-------------------|----------------|

E :------------------|----------------|-------------------|
B :------------------|--------2--------|-------------------|
G :---4-----------7--|----------2-----|-----4--------7----|
D :4-----------7-----|-----2------2--|--4---------7------|
A :-------2-/5-------|---0-----------2|-------2-/5-------0|
E :------------------|-------------------|-------------------|
                                 and I stumbled over to you
E :----------------|------------------|----------------|
B :---2------------|------------------|--2-------------|
G :------2--------4|---------7--------|-----2----------|
D :-2------2----4-|-------7---------2|--------2-----4-|
A :-----------2----|--2-/5---------0---|-----------2----|
E :----------------|------------------|----------------|
 as you stumbled over me           and you say the fates were
E :------------------|----------------|----------------------------|
B :------------------|---2------------|---------------------------|
G :-4----------7-----|-----2--------4-|---------7-----9-------|
D :---------7--------|2------2----4---|------7--------9-------|
A :----2-/5-------0--|----------2-----|2-/5-----------7-------|
E :------------------|----------------|----------------------------|
   cruel         for throwing us         together    I always loved
E :----------------|----------------|------------------|----------------|
B
:----------------|---------------2---|------------------|---------2------|
G :--6---7-----9--6|--7-----------2-|--------4---------|-7----------2---|
D :--6---7-----9--6|--7------2------|2-----4---------7-|-------2------2-|
A :--4---5-----7--4|--5----0--------|---2-------2-/5---|-----0----------|
E
:----------------|--------------------|------------------|----------------|
   you sooo   especially when you go    all the world must know
E :-------------------|----------------------|----------------|
B :-------------------|---------------------|----------------|
G :------4----------7-|-------------------|----4--4-----7--|
D :----4----------7---|----4-4-4-4-----|----4--4-----7--|
A :-2--------2-/5-----|----4-4-4-4-----|----2--2-----5--|
E :---------------------|----2-2-2-2-----|----------------|
all the world must know       that I loved you so
E :-----------------|------------------|
B :--------2--------|------------------|
G :----------2------|---4----------7---|
D :-----2------2----|-4----------7-----|
A :---0-----------2-|-------2-/5-------|
E :-----------------|------------------|

E :-----------------|------------------|
B :--------2--------|------------------|
G :----------2------|---4----------7---|
D :-----2------2----|-4----------7-----|
A :---0-----------2-|-------2-/5-------|
E :-----------------|------------------|


E :----------------|------------------|----------------|
B :---------2--------|------------------|-----2----------|
G :----------2------|---4--------7-----|--------2-------|
D :-----2-----2----|-4--------7-------|--2-------2-----|
A :--0------------2|-----2-/5---------|0-------------2-|
E :----------------|------------------|----------------|
  it's a pity we're apart              it's shame you
E :------------------|----------------|-------------------|
B :------------------|---------2-------|-------------------|
G :---4-----------7--|----------2-----|-----4--------7----|
D :4-----------7-----|-----2------2---|--4---------7------|
A :-------2-/5-------|---0-----------2|-------2-/5-------0|
E :------------------|----------------|-------------------|
broke my heart                      but I've got a new girl
E :----------------|------------------|----------------|
B :---2------------|------------------|----------------|
G :------2--------4|---------7--------|------9---------|
D :-2------2----4--|-------7---------|------9---------|
A :-------------2----|-2-/5------------|------7---------|
E :------------------|--------------------|----------------|
 freind         she looks a lot like        you dear
  
E :----------------|---------------------------------------------------
B :----------------|-----------------------------------------------------
G :--6---7-----9--6|--7----------------------------------4----7----
D :--6---7-----9--6|--7--------------------4-4-4--4---4----7----
A :--4---5-----7--4|--5---------------------4-4-4--4---2----5----
E :-------------------|------------------------2-2-2--2---------------
noone could ever do dear    all the world must know   that I loved her so

E :----------------------------------------|
B :--------------------|-------------------|
G :--------------------|---4--4-----7--|
D :-----4-4-4-4-----|----4--4-----7--|
A :-----4-4-4-4-----|----2--2-----5--|
E :-----2-2-2-2-----|----------------|
   especially when you go        

E :------------------------------------
B :------------------------------------
G :---2----4----7----------2----4----7-
D :---2----4----7----------2----4----7-
A :---0----2----5----------0----2----5-
E :------------------------------------
   especially when you go  esecially when you go 
E :------------------------------------
B :------------------------------------
G :---2----4----7----------2----4----7-
D :---2----4----7----------2----4----7-
A :---0----2----5----------0----2----5-
E :------------------------------------
   especially when you go  away and leave me here 
E :--------------------------------------------------
B :--------------------------------------------------
G :---2----4----7---------------------------4---7
D :---2----4----7----------------4--4--4--4---7
A :---0----2----5----------------4--4--4--2---5
E :--------------------------------2--2--2-------
   go away and leave me alone    all the world must know

E :----------------|------------------|----------------|
B :--------2--------|------------------|------2----------|
G :---------2------|---4--------7-----|--------2-------|
D :-----2-----2----|-4--------7-------|--2-------2-----|
A :--0------------2|-----2-/5---------|0-------------2-|
E :----------------|------------------|----------------|

E :------------------|----------------|-------------------|
B :------------------|---------2-------|-------------------|
G :---4-----------7--|----------2-----|-----4--------7----|
D :4-----------7-----|-----2------2---|--4---------7------|
A :-------2-/5-------|---0-----------2|-------2-/5-------0|
E :------------------|----------------|-------------------|
                                     pennies for sale
E :----------------|------------------|----------------|
B :---2-------------|------------------|--2-------------|
G :------2--------4|---------7--------|-----2----------|
D :-2------2----4--|-------7---------2|--------2-----4-|
A :-------------2----|-2-/5---------0---|-----------2----|
E :----------------|------------------|----------------|
             pennies for sale     
E :------------------|----------------|----------------------|
B :------------------|---2------------|----------------------|
G :-4----------7-----|-----2----4-----|-7-----2--------------|
D :---------7--------|2------2--4-----|-7-----2--------------|
A :----2-/5-------0--|----------2-----|-5-----0--------------|
E :------------------|----------------|----------------------|
    pennies for sale       pennies for sale


Again. I did my best, and I want YOU to give me comments.
Please I beg you.
jizm@juno.com
  development and support by
dmitry ivanov