rock
 
|tablatures   |lyrics   |discussion forums   |more tabs @ XGuitar.com

Smashing Pumpkins tabs

Muzzle guitar tab

Tabbed by Brian McCall 

MUZZLE - by Smashing Pumpkins on MCIS, written by Billy
======

Eb tuning

G1 slightly distorted

|--------------------------------------------------------
|-2--2--2--2--0--0--------2--2--2--2--0--0---------------
|-2--2--2--2--0--0--4--4--2--2--2--2--0--0--4--4---------
|-2--2--2--2--0--0--4--4--2--2--2--2--0--0--4--4---------
|-0--0--0--0--X--X--2--4--0--0--0--0--X--X--2--2---------
|-------------3--3--------------------3--3---------------
                        
both guitars distortion

|--------------------------------------------------------
|-2--2--2--2--0--0--------2--2--2--2--0--0---------------
|-2--2--2--2--0--0--4--4--2--2--2--2--0--0--4--4---------
|-2--2--2--2--0--0--4--4--2--2--2--2--0--0--4--4---------
|-0--0--0--0--X--X--2--4--0--0--0--0--X--X--2--2---------
|-------------3--3--------------------3--3---------------
                                                ^repeat
|-0--0--0--0---------------------------------------------
|-3--3--3--3--------------------------2--2--2--2---------
|-2--2--2--2--4--4--4--4--------------2--2--2--2---------
|-0--0--0--0--4--4--4--4--2--2--2--2--2--2--2--2---------
|-0--0--0--0--2--2--2--2--2--2--2--2--0--0--0--0---------
|-------------------------0--0--0--0---------------------

*2 Chorus

|--------------------------------------------------------
|-0--0------------2--2--2--2--0--0------------2--2--2--2-
|-0--0--X-4--4--X-2--2--2--2--0--0--X-4--4--X-2--2--2--2-
|-0--0--X-4--4--X-2--2--2--2--0--0--X-4--4--X-2--2--2--2-
|-X--X--X-2--2--X-0--0--0--0--X--X--X-2--2--X-0--0--0--0-
|-3--3--X-------X-------------3--3--X-------X------------

|---------------------------------------------0--0--0--0-
|-0--0------------2--2--2--2--0--0------------3--3--3--3-
|-0--0--X-4--4--X-2--2--2--2--0--0--X-4--4--X-2--2--2--2-
|-0--0--X-4--4--X-2--2--2--2--0--0--X-4--4--X-0--0--0--0-
|-X--X--X-2--2--X-0--0--0--0--X--X--X-2--2--X-0--0--0--0-
|-3--3--X-------X-------------3--3--X-------X------------

*3

|--------------------------------------------------------
|-2--2--2--2--0--0--------2--2--2--2--0--0---------------
|-2--2--2--2--0--0--4--4--2--2--2--2--0--0--4--4---------
|-2--2--2--2--0--0--4--4--2--2--2--2--0--0--4--4---------
|-0--0--0--0--X--X--2--4--0--0--0--0--X--X--2--2---------
|-------------3--3--------------------3--3---------------
                                                ^repeat
|-0--0--0--0---------------------------------------------
|-3--3--3--3--------------2--2--2--2---------------------
|-2--2--2--2--4--4--4--4--2--2--2--2---------------------
|-0--0--0--0--4--4--4--4--2--2--2--2---------------------
|-0--0--0--0--2--2--2--2--0--0--0--0---------------------
|--------------------------------------------------------
                                    ^repeat

Solo/Lead Fill

octaved or something

|--------------------------------------------------------
|--------------------------------------------------------
|-7--9--11----11hbr-9--7--9------------------------------
|----------------------------7---------------------------
|--------------------------------------------------------
|--------------------------------------------------------

repeat chorus and last half of *3 and chorus again.
  development and support by
dmitry ivanov