rock
 
|tablatures   |lyrics   |discussion forums   |more tabs @ XGuitar.com

Smashing Pumpkins tabs

Muzzle bass tab

Title:       Muzzle
Artist:      The Smashing Pumpkins
Album:       Mellon Collie And the Infinite Sadness
Tabbed by:   joey - (joeyn@bigfoot.com)
                                                                      
                                4x                                    
G-||----------------------------||--------------------------|
D-||o--------------------------o||--------------------------|
A-||o--0--0--0--0--------2--2--o||--0--0--0--0--------5--5--|
E-||---------------3--3---------||--------------3--3--------|
    to lie here....                                                                    
                                                                        
G-|-----------------------------|--------------------------|
D-|--------------------2--2-----|--------------------------|
A-|--5--5--5--5--2--2--------0--|--------2--2--0--0--0--0--|
E-|-----------------------------|--3--3--------------------|
    interlude                     and i knew...                                                
                                                                       
G-|--------------------------|---------------|
D-|--------------------------|---------------|
A-|--5--5--2--2--0--0--0--0--|--5---5--5--5--|
E-|--------------------------|---------------|
    is the world...            guitar solo                                                          
                                                                        
                                                                      
Yes, this song is also tuned in Eb.  

If you've got any questions, compliments, complaints, help, or want to give
me money, send me email at joeyn@bigfoot.com.


   ======================================================================
   ==      Created with a shareware version of the BUCKET 'O TAB       ==
   ==             tablature creation software for Windows              ==
   ==                      For more information:                       ==
   ==                     email: gse@ocsystems.com                     ==
   == US Mail: The Bucket, 3176-B5 Summit Square Dr., Oakton, VA 22124 ==
   ======================================================================
  development and support by
dmitry ivanov