rock
 
|tablatures   |lyrics   |discussion forums   |more tabs @ XGuitar.com

Smashing Pumpkins tabs

Meladori Magpie guitar tab

Song:    Meladori Magpie
 Release: Tonight, tonight single, TAFH
 Artist:  The Smashing Pumpkins
 Author:  Roy Stevenson (are_you_done@yahoo.com)
 Tuning:  standard
 Notes:   acoustic

 

Basic chords are: D  |XX0232|  C |X30210|
                  Bm |X2443X|  A |X02220|
                  G  |XX0787|

*1

G1 Acoustic

This is by no means exact and is just to give you an idea of 
what the pattern's like.

|-2---2----2---2---0---0-----0---0----------------------
|------3--------3----1---------1------3---3-----3---3---
|---2---2----2---2-------0---------0--------4---------4-
|--------0------------------------------4---------4-----
|--------------------------3------------------2---------
|-------------------------------------------------------

|--------------------7---7-----7---7---------------------
|--2---2-----2---2-----8---------8-----------------------
|----2---------2-----------7---------7-------------------
|--------2---------2---------0---------------------------
|----------0---------------------------------------------
|--------------------------------------------------------
                                         ^repeat

*2

|---2---2-----7---7-----2---2-----7---7---2---2--1----------
|-----3---------8---------3---------8-----3---3--1--3-------
|---------2---------7---------2---------7-2---2--0--4-------
|-0---------0---------0---------0---------0---0--2--4-------
|------------------------------------------------3--2-------
|-----------------------------------------------------------

|---------7---7-----7---7-----------------------------------
|-3--2------8---------8-------------------------------------
|-4--2----------7---------7---------------------------------
|-4--2--0---------0-----------------------------------------
|-2--0------------------------------------------------------
|-----------------------------------------------------------
  development and support by
dmitry ivanov