rock
 
|tablatures   |lyrics   |discussion forums   |more tabs @ XGuitar.com

Smashing Pumpkins tabs

Jellybelly bass tab

Song Title: Jellybelly
Artist: Smashing Pumpkins
----------------------------------------------

This was a tough one to figure out, but it was worth it.
Normal tuning (E,A,D,G)

Part 1 (Intro)
|------------------------|
|------------------------|
|------3/5-3-3-3---------|
|-0-0-------------5-5-0-0|

Part 2 (First Verse)
|------------------------------------|
|------------------------------------|
|-0--0--3--3-------3/5-3-3-3---------|
|-------------0-0-------------5-5-0-0|

Part 3 (Chorus)
|--------------------------------------------------|
|--------------------------------------------------|
|------------------3-3-3-3-3-3-3-3-----------------|
|-0-0-0-0-0-0-0-0-------------------5-5-5-5-5-5-5-5|

Part 3.5 (Fill after the chorus once)
|------------------|
|------------------|
|-5-5-7-7-9-9-12-12|
|------------------|

Part 4 (second verse)
|--------------------------------------------------------|
|--------------------------------------------------------|
|-0--0--3--3--5-5-3-3-5-5-3-3-5-5--0--0--3--5-4-4-5-5-7-7|
|--------------------------------------------------------|

Part 4 contd
|--------------------------------------------------------|
|--------------------------------------------------------|
|-9-9-10-10--0--0--3--3--5-5-3-3-5-5-3-3-5-5--0--0--3--5-|
|--------------------------------------------------------|

Part 5 (2nd Chorus)
|--------------------------------------------------|
|--------------------------------------------------|
|------------------3-3-3-3-3-3-3-3-----------------|
|-0-0-0-0-0-0-0-0-------------------5-5-5-5-5-5-5-5|

Part 5 contd
|--------------------|
|--------------------|
|-5-5-3-3-5-5-3-3-5-5|
|--------------------|

Part 6 (Fill 1)
|---------|
|---------|
|------2-2|
|-4-4-----|

Part 7 (Fill 2)
|-----------------|
|-----------------|
|--------------2-2|
|-0-0-5-5-4-4-----|

Part 8 (Post Chorus)
|----------------------------------------------------------|
|----------------------------------------------------------|
|-0-0-1-1-2-2-3-3-4-4-5-5-6-6-7-7-8-8-9-9-10-10-10-10-12-12|
|----------------------------------------------------------|

Order of Parts
Part1    4x
Part2    4x
Part3    1x
Part3.5  1x
Part3    1x
Part1    4x
Part4    1x
Part5    2x
Part6    1x
Part7    3x
Part8    1x
Part1    4x
Part2    4x (playing only the first 4 notes, holding each one)
Part3    1x
Part3.5  1x
Part3    1x
Part1    4x

Have fun.

Submitted by:  Andrew (apl1@village.ios.com)
  development and support by
dmitry ivanov