rock
 
|tablatures   |lyrics   |discussion forums   |more tabs @ XGuitar.com

Smashing Pumpkins tabs

Jackie Blue bass tab

Title: Jackie Blue
Artist: Smashing Pumpkins
Album: 20 Explosive Dynamic Super Smash Hit Explosions!
Tuning: E A D G

Riff 1
G|----------------|
D|----------------|
A|---4--6---------|
E|6------------4--|

Riff 2 is very hard to hear in the song. I really can't make it out
so here is a shot in the dark as to how its played.

Riff 2
G|---------------|
D|---------------|
A|0-2-3-0-2-3-3--|
E|---------------|

Then play Riff 1, Riff 2, Riff 1 and so on. 

During the last solo play Riff 3:

Riff 3
G|-----------------|
D|-----------------|
A|---4--6----------|
E|6----------6--4--|

This tab was made by Nathan Amber. Send questions and comments to
iha_eeha@hotmail.com
  development and support by
dmitry ivanov