rock
 
|tablatures   |lyrics   |discussion forums   |more tabs @ XGuitar.com

Smashing Pumpkins tabs

In The Arms Of Sleep bass tab

n the arms of sleep - Smashing Pumpkins

INTRO
G -------------------------------------------------
D -------------------------------------------------
A -------------------------------------------------
E ---3-3/10---1-1-1-1---3-3/10---1-1-1-1-------

G ---------------------------------------------------
D -------------------------------------------------
A -------------------------------------------------
E  ---3-3/10---1-1-1-1--------------------------

G ----------------------------------------------------
D -------------------------------------------------
A -------------------------------------------------
E  ---3-3/10---1-1-1-1-------------------------

G -----------------------------------------------------
D --------------------------------------------------
A --------------------------------------------------
E  ---0-0-4-4-3-3-3-3---------------------------

G -----------------------------------------------------
D -------------------------------------------------
A -------------------------------------------------
E  --0-0-4-4-3-3-3-3--------------------------

G --------------------------------------------------
D -------------------------------------------------
A -------------------------------------------------
E  ---1-1-1-1-------------------------------------

G -----------------------------------------------------
D -------------------------------------------------
A -------------------------------------------------
E  ---3-3/10---1-1-1-1---3-3/10---1-1-1-1---

G ---------------------------------------------------
D -------------------------------------------------
A -------------------------------------------------
E  ---3-3/10---1-1-1-1--------------------------

G -----------------------------------------------------
D -------------------------------------------------
A -------------------------------------------------
E  -3-3/10---1-1-1-1--------------------------

G ----------------------------------------------------
D --------------------------------------------------
A --------------------------------------------------
E  ---0-0-4-4-3-3-3-3----------------------------

G -----------------------------------------------------
D --------------------------------------------------
A --------------------------------------------------
E  --0-0-4-4-3-3--------------------------------

G --------------------------------------------------
D --------------------------------------------------
A --------------1-1-1-1----------------------------
E  ----4-4-4-4--------------------------------------

G ----------------------------------------------------
D ---------------------------------------------------
A --------------------------------------------------
E  ----4-4-4-4-------------------------------------

G --------------------------------------------------
D ----------------------------------------------------
A ---1-1-1-1-------------------------------------
E  --------------------------------------------------

G ---------------------------------------------------
D --------------------------------------------------
A --------------------------------------------------
E  ---4-4-4-4--------------------------------------

G --------------------------------------------------
D --------------------------------------------------
A ----1-1-1-1--------------------------------------
E  --------------------------------------------------

G ---------------------------------------------------
D --------------------------------------------------
A --------------------------------------------------
E  ----4-4-4-4-------------------------------------

G ------------------------------------------------------
D --------------------------------------------------
A -------------------------------------------------
E  ----0-0-4-4-3-3-3-3------------------------

G ------------------------------------------------------
D --------------------------------------------------
A --------------------------------------------------
E  ---0-0-4-4-3-3-3-3--------------------------

G ----------------------------------------------------
D -------------------------------------------------
A -------------------------------------------------
E  -----1-1-1-1---------------------------------

G ----------------------------------------------------
D -------------------------------------------------
A -------------------------------------------------
E  -----3-3/10---1-1-1-1-----------------------

G --------------------------------------------------
D -------------------------------------------------
A -------------------------------------------------
E  ---3-3/10---1-1-1-1---------------------------

G ------------------------------------------------------
D --------------------------------------------------
A --------------------------------------------------
E  ----0-0-4-4-3-3-3-3-------------------------

G ------------------------------------------------------
D --------------------------------------------------
A --------------------------------------------------
E  ----0-0-4-4-3-3-3-3-------------------------

G ---------------------------------------------------
D --------------------------------------------------
A --------------------------------------------------
E  ----4-4-3-3-------------------------------------

G ---------------------------------------------------
D --------------------------------------------------
A --------------------------------------------------
E  ----4-4-3-3-------------------------------------

G -----------------------------------------------------
D --------------------------------------------------
A --------------------------------------------------
E  ----4-4-3-3-0-0-4-4--------------------------

G -----------------------------------------------------
D --------------------------------------------------
A --------------------------------------------------
E  ----4-4-3-3-----------------------------------

G ----------------------------------------------------
D --------------------------------------------------
A --------------------------------------------------
E  ----4-4-3-3------------------------------------

G ----------------------------------------------------
D --------------------------------------------------
A --------------------------------------------------
E  ---4-4-3-3-0-0-4-4--------------------------

G ----------------------------------------------------
D --------------------------------------------------
A --------------------------------------------------
E  ----3-3-3-3------------------------------------

G ---------------------------------------------------
D --------------------------------------------------
A --------------------------------------------------
E  ---0-0-4-4-3-3-3-3--------------------------

G -------------------------------------------------
D --------------------------------------------------
A --------------------------------------------------
E  ---0-----------------------------------------------

THE END
  development and support by
dmitry ivanov