rock
 
|tablatures   |lyrics   |discussion forums   |more tabs @ XGuitar.com

Smashing Pumpkins tabs

I Of The Mourning guitar tab

X===============================PLEASE NOTE==============================X
X  This tab is all my own and represents my interpretation of the song.  X
X You may only use this tab for private study, scholarship, or research. X
X  Do not change, deface, mutilate, or in any other way alter this tab.  X
X   You must email me first if you want to use this tab on your site.    X
X========================================================================X


*I of the Mourning*
Transcribed by Obscured@san.rr.com
Http://home.san.rr.com/obscured


Tuning: E A D G B E


INTRO
                   x2
|-0--------0----3----|
|-1--------1----1----|
|-2--------2----0----|
|-3--------2----2----|
|-3--------0----3----|
|--------------------|

|-1--p0--0----0----3----|
|-3------1----1----1----|
|-2------2----2----0----|
|-0------3----2----2----|
|--------3----0----3----|
|-----------------------|

|-1--p0--0----|
|-3------1----|
|-2------2----|
|-0------3----|
|--------3----|
|-------------|


VERSE
                  x2
|-------------------|
|(0)------(0)-------|
|(0)------(0)-------|
|-5--------3--------|
|-5--------3--------|
|-3--------1--------|

|---------------|
|(0)------(0)---|
|(0)------(0)---|
|-5--------3----|
|-5--------3----|
|-3--------1----|

                  x2
|-------------------|
|(0)------(0)-------|
|(0)------(0)-------|
|-5--------3--------|
|-5--------3--------|
|-3--------1--------|

|---------------|
|(0)------(0)---|
|(0)------(0)---|
|-5--------3----|
|-5--------3----|
|-3--------1----|

|-----------------|
|-----------------|
|-----------------|
|-2-2-2-2-2-2-2-2-|
|-2-2-2-2-2-2-2-2-|
|-0-0-0-0-0-0-0-0-|


CHORUS
|-0----0----0----0----0----0----0----0----0----0----|
|-1----1----0----0----1----1----0----1----1----0----|
|-2----2----0----0----2----2----0----2----2----0----|
|-2----3----2----2----2----3----2----2----3----2----|
|-0----3----2----2----0----3----2----0----3----2----|
|-----------0----0--------------0--------------0----|


BRIDGE
                    x2
|-0----0----0----0----|
|-1----1----1----1----|
|-2----2----2----0----|
|-3----3----2----2----|
|-3----3----0----3----|
|---------------------|

|-0----0----0----|
|-3----1----1----|
|-2----2----2----|
|-0----3----2----|
|------3----0----|
|----------------|


SOLO

 Rhythm
|-0----0----0----0----0----0----0----|
|-0----0----1----1----0----0----1----|
|-0----0----2----2----0----0----2----|
|-2----2----2----2----2----2----2----|
|-2----2----0----0----2----2----0----|
|-0----0--------------0----0---------|

|-0----0----0----0----0----0----|
|-1----1----1----1----3----1----|
|-2----2----2----0----2----2----|
|-3----3----2----2----0----3----|
|-3----3----0----3---------3----|
|-------------------------------|


 Lead
|-7p0--0--------0-------0---------0----0--5-3-3/7-5--7p0-0--5-3-2/3--0-2/3-0----
|-0------0--3/5---5-3/5---5~~-5\3---0--0----------------------------------------
|-------------------------------------------------------------------------------
|-------------------------------------------------------------------------------
|-------------------------------------------------------------------------------
|-------------------------------------------------------------------------------

 -------------------------------------------------------------------------------------------|
 -1~~---1~~--(3)/5~~---5~~------5------5-----5------/8-8-8-10-8-10~~~~-8-10-8--10-8~~~~~~~~-|
 -----2--------------5------5~~---5~~----5~~---5~~------------------------------------------| 
 -------------------------------------------------------------------------------------------|
 -------------------------------------------------------------------------------------------|
 -------------------------------------------------------------------------------------------|


VERSE 2
|-------------------|
|(0)------(0)-------|
|(0)------(0)-------|
|-5--------3--------|
|-5--------3--------|
|-3--------1--------|

|---------------|
|(0)------(0)---|
|(0)------(0)---|
|-5--------3----|
|-5--------3----|
|-3--------1----|

                  x2
|-------------------|
|(0)------(0)-------|
|(0)------(0)-------|
|-5--------3--------|
|-5--------3--------|
|-3--------1--------|


CHORUS 2
|-0----0----0----0----0----0----0----0----0----|
|-1----1----0----1----1----0----1----1----0----|
|-2----2----0----2----2----0----2----2----0----|
|-2----3----2----2----3----2----2----3----2----|
|-0----3----2----0----3----2----0----3----2----|
|-----------0--------------0--------------0----|


BRIDGE 2
                    x2
|-0----0----0----0----|
|-1----1----1----1----|
|-2----2----2----0----|
|-3----3----2----2----|
|-3----3----0----3----|
|---------------------|

|-0----0----0----|
|-3----1----1----|
|-2----2----2----|
|-0----3----2----|
|------3----0----|
|----------------|


INTERLUDE
|-0----0----0----0----|
|-1----1----1----1----|
|-2----2----2----2----|
|-3----3----2----2----|
|-3----3----0----0----|
|---------------------|

|-0----0----0----------------|
|-1----1----1----------------|
|-2----2----2----------------|
|-3----3----2----------------|
|-3----3----0----0--7--5--3--|
|----------------------------|

|-0----0----0----0----|
|-1----1----1----1----|
|-2----2----2----0----|
|-3----3----2----2----|
|-3----3----0----3----|
|---------------------|

                    x3
|-0----0----0----0----|
|-1----1----1----1----|
|-2----2----2----0----|
|-3----3----2----2----|
|-3----3----0----3----|
|---------------------|


OUTRO
                    x6
|-0----0----0----0----|
|-3----1----1----1----|
|-2----2----2----0----|
|-0----3----2----2----|
|------3----0----3----|
|---------------------|

End on
|-0----0----0--------|
|-3----1----1--------|
|-2----2----2--------|
|-0----3----2--------|
|------3----0--------|
|--------------------|
  development and support by
dmitry ivanov