rock
 
|tablatures   |lyrics   |discussion forums   |more tabs @ XGuitar.com

Smashing Pumpkins tabs

I Am One bass tab

I Am One
by Randy Locklair
rlocklair@envirolink.org

Intro
G-------------------|
D-------------------|
A-------------------|
E-2-0-2-0-2-0-0-2-0-|

Verse
G-------------------------------------|
D-------------------------------------|
A---------------0-0---------------0-2-|
E-2-0-2-0-2-2-0-----2-0-2-0-2-2-0-----|

Fill
G-------------------------------------------------------------|
D-------------------------------------------------------------|
A-------------------------11-11-------------------------------|
E-12-0-0-0-12-0-0-12-12-0-------12-0-0-0-12-0-0-12-12-0-10-12-|

b4 solo
G------------------|
D------------------| listen to song for spacing
A-0--0--0--0--0--0-|
E------------------|

mid solo
E-0-

bass only
G-----------------------------------------|
D-----------------------------------------|
A-----------------0-0-----------------0-2-|
E-2-0-2-0-2-2-0-0-----2-0-2-0-2-2-0-0-----|

Order:

Intro x 11.5 + pick slides
Verse x 8
Fill x 2
Intro x 7.5
Verse x 6
Fill x 2
Verse x 4
Before Solo x 2
Verse x 4
Mid Solo x 1
Bass Only x 2
Verse x 8

Ends on F#
________________________________________________________________________
___

Any problems, suggestions, compliments, requests for other songs, etc,
email to:

rlocklair@envirolink.org

Return to the Pumpkin Pie Guitar Section!
Return to the Pumpkin Pie!

-randy
  development and support by
dmitry ivanov