rock
 
|tablatures   |lyrics   |discussion forums   |more tabs @ XGuitar.com

Smashing Pumpkins tabs

Hello Kitty Kat guitar tab

 Song:    Hello Kitty Kat
 Release: Pisces Iscariot
 Artist:  The Smashing Pumpkins
 Author:  Carlos Bustos 
          (outro by Guillermo Lopez )
 Tuning:  standard



[RIFF 1]: Heavy Distortion
||-------------------------------------------------------------------|
||-------------------------------------------------------------------|
||-------------------------------------------------------------------|
||-4--4-4--4-----4-4--4-4-4--4-----4-4-4--4-4--4-----4-4--4-4-4--4---|
||-4--4-4--4-----4-4--4-4-4--4-----4-4-4--4-4--4-----4-4--4-4-4--4---|
||-2--2-2--0h2---2-2--2-2-2--0h2---2-2-2--2-2--0h2---2-2--2-2-2--0h2-|

A little while after [RIFF 1], after the drums come in.  
Play this little build up.

||----------------------------------------
||----------------------------------------
||----------------------------------------
||----------------------------------------
||--13---13-13---13-13--13-13-13-13-13-13-
||----------------------------------------

   ---------------------------------|
   ---------------------------------|
   ---------------------------------|
   ---------------------------------|
   --14---14-14---14-14--14-14-14-14|
   ---------------------------------|

||-----------------------------------------------------------------|
||-----------------------------------------------------------------|
||-----------------------------------------------------------------|
||-----------------------------------------------------------------|
||-14-14----16---16-16---16-16--16-16-16-16-16-16--[pick scrape]---|
||-----------------------------------------------------------------|

Then Just:
[RIFF 1]
Say hello, before you say goodbye
I should go, before you make me cry
She wants to bleed, every drop inside of me
But I aim to please the little girl inside of me, too

[RIFF 2]
||-------------------------------------|
||-------------------------------------|
||-------------------------------------|
||--6-------6---6--2---2-2-2-2-2-2-----|
||--6-------6---6--2---2-2-2-2-2-2-----|
||--4-------4---4--0---0-0-0-0-0-0-----|
Yeah, Yeah
You know I hate to say
Oh no, I always stay
I don't wanna be like the others please
Who is sorry now?
Who is sorry now?
If I show you how, we'll let you down.

[Small Solo]: 
you figure out the rhythm, 
the h's and p's are done FAST.
I'm pretty sure this is right.  
It sounds right anyways :)

||---------------------------------------
||---------------------------------------
||--18~------18h19p18h19~---18h19p18-21~-
||---------------------------------------
||---------------------------------------
||---------------------------------------

   ----------------------------------|
   ----------------------------------|
   --18h19p18h19~---18h19p18-18~-----|
   ----------------------------------|
   ----------------------------------|
   ----------------------------------|

||----------------------------------------------------|
||----------------------------------------------------|
||----18h21~~-------18h19p18h19p18---21--18--19~------|
||----------------------------------------------------|
||----------------------------------------------------|
||----------------------------------------------------|


[RIFF 1b]
||---------------------|
||---------------------|
||---------------------|
||-9----9-9-9-9-9-2----|
||-9----9-9-9-9-9-2----|
||-7----7-7-7-7-7-0----|

[RIFF 1]: But at the end of each line add [RIFF 1b]

[RIFF 1]                             [RIFF1b]
Slit my wrists and die for. . . her.
Love to love to love what you adore
I can give you anything, but pleasing you,
Be your everything... I lose


[RIFF 2]
Yeah, Yeah
You know I hate to say
Oh no, I always stay
I don't wanna be like the others please
Who is sorry now?
If I show you how,
Will you let me down?
Will you let me down?
Who is sorry now?
Who is sorry NOW!?

[RIFF 3]:
This is played a couple of times then under the singing.
||------------------------------------------------------------|
||------------------------------------------------------------|
||------------------------------------------------------------|
||11--1111-111111-2--2-2-2-2-2--11--1111-111111-2--2-2-2-7-9--|
||11--1111-111111-2--2-2-2-2-2--11--1111-111111-2--2-2-2-7-9--|
||-9---9-9--9-9-9-0--0-0-0-0-0---9---9-9--9-9-9-0--0-0-0-5-7--|

My love is weakness
                                 My love is oh so wrong
My love is sadness
                                 My love is oh so strong
I'll be there when you shout
                                 My love is fucking strong
I'll be with you all night long

[Just before the Solo, 
at the end of last line above, 
play this for the end]
||----------------------|
||----------------------|
||----------------------|
||11--1111-111111-12----|
||11--1111-111111-12----|
||-9---9-9--9-9-9-10----|

                       
[guitar solo]: Yah right, YOU figure this out.

Ooooh ooooh oooooh

[RIFF 2]: Solo is played through this into the outro.
Yeah, Yeah
You know I hate to say
Oh no, I always stay
I don't wanna be like the others please
Who is sorry now?
Who is sorry now?
Who is sorry now?
Girl, I'll show you how,
We'll let you down.
We let you down.
Please let me down.
Please let me doooown.

[outro]

-*-*-*-

Comment: 

Well, this is my second tab, First being Girl Named Sandoz.
This tab is pretty complete, minus the second solo.  If anyone
can figure it out, PLEASE mail me.  Anyways hope you like it.
If you do use this tab please mail me with comments as it took
me a while to figure out and I would like feedback, good or bad.

*********************************************************************

Hello Kitty Kat (outro) by Guillermo Lopez (xyu79@yahoo.com)

Tuning: standard

b= bend		h= hammer
r= release	p= pull
/= slide up	x= palm mute
\= slide down	
~= vibrato


E|-17p14-------------------------------|
B|-------17p14-------------------------|
G|-------------16p14-------------------|
D|-------------------16p14-------------|
A|-------------------------16p14-------|
E|-------------------------------17p14-|   X 3 times

E|-17p14-------------------------------|
B|-------17p14---------------/14--/14--|
G|-------------16p14-------------------|
D|-------------------16p14-------------|
A|-------------------------------------|
E|-------------------------------------|


E|-------------------------------------------------------------------|
B|-14-14-14-14-17-17b19-17-14----------------------------------------|
G|----------------------------16-16p14-------16p14-------------------|
D|-------------------------------------16p14-------16p14-------------|
A|-------------------------------------------------------16p14-12b14-|
E|-------------------------------------------------------------------|

E|---------------------------|
B|---------------------------|
G|-------------------/14-/14-|
D|-16p14---------------------|
A|-------16p14---------------|
E|-------------17p14---------|

E|------------------------------------------|
B|------------------------------------------|
G|------------------------------------------|
D|-16p14-------------16~p14-----------------|
A|-------16p14--------------16p14-----------|
E|-------------17p14--------------17p14-----| X 3 times

E|-------------------------------------|
B|-------------------------------------|
G|-------------------/13~-14~-16~-18~\-|
D|-16p14-------------------------------|
A|-------16p14-------------------------|
E|-------------17p14-------------------|

E|-------------------------------------|
B|-------------------------------------|
G|-------------------------------------|
D|-x----x------------------------------|
A|-x----x------------------------------|
E|-x----x--------18\-------------------|

This is my first tab, it may have some errors but it sounds ok to me.
E-mail me for comments or corrections. Right now I'm working on the solo,
I hope I can finish it soon.  
  development and support by
dmitry ivanov