rock
 
|tablatures   |lyrics   |discussion forums   |more tabs @ XGuitar.com

Smashing Pumpkins tabs

Heavy Metal Machine guitar tab

X===============================PLEASE NOTE==============================X
X  This tab is all my own and represents my interpretation of the song.  X
X You may only use this tab for private study, scholarship, or research. X
X  Do not change, deface, mutilate, or in any other way alter this tab.  X
X   You must email me first if you want to use this tab on your site.    X
X========================================================================X


*Heavy Metal Machine*
Transcribed by Obscured@san.rr.com
Http://home.san.rr.com/obscured


Tuning: C G C F A D


INTRO
                        x8
|-------------------------|
|-------------------------|
|-------------------------|
|---------------------4h5-|
|---------3h5-----3h5-----|
|-0-0-4h5-----0-0---------|


Lead (arranged for guitar without a whammy pedal)
                                  x2
|-----------------------------------|
|-----------------------------------|
|-17-17-17-17-17-17~~-14-14~~~~\\\\-|
|-----------------------------------|
|-----------------------------------|
|-----------------------------------|


VERSE
                        x4
|-------------------------|-----------|
|-------------------------|-----------|
|-------------------------|-----------|
|---------------------4h5-|-2----5----|
|---------3h5-----3h5-----|-2----5----|
|-0-0-4h5-----0-0---------|-2----5----|

|-------------------------|-----------|
|-------------------------|-----------|
|-------------------------|-----------|
|---------------------4h5-|-2----5----|
|---------3h5-----3h5-----|-2----5----|
|-0-0-4h5-----0-0---------|-2----5----|

|-------------------------|--------------------|
|-------------------------|--------------------|
|-------------------------|--------------------|
|---------------------4h5-|-2--------1----5----|
|---------3h5-----3h5-----|-2--------1----5----|
|-0-0-4h5-----0-0---------|-2--------1----5----|


PRECHORUS
|-------------------------------------|
|-------------------------------------|
|-7--------7-------(7)------(7)-------|
|-7--------7--------7--------8--------|
|-5--------4--------5--------5--------|
|-------------------5--------5--------|

|----------|
|----------|
|-7--------|
|-7--------|
|-5--------|
|-0--------|


CHORUS
|-------------------------------------------------------------------------|
|-------------------------------------------------------------------------|
|-3--------------------------------------------5--------------------------|
|-3--------3--------5--------0--------1--------5--------5--------0--------|
|-1--------3--------5--------0--------1--------3--------5--------0--------|
|----------3--------5--------0--------1-----------------5--------0--------|

|------------------------------------------------------------------------|
|------------------------------------------------------------------------|
|-3-----------------------------------5-----------------7----------------|
|-3--------3--------1--------0--------5--------5--------7----------------|
|-1--------3--------1--------0--------3--------5--------5----------------|
|----------3--------1--------0-----------------5--------0----------------|


BRIDGE
                                    x2
|-------------------------------------|
|-------------------------------------|
|-------------------------------------|
|-1--------0--------6--------5--------|
|-1--------0--------6--------5--------|
|-1--------0--------6--------5--------|

|----------|
|----------|
|----------|
|-0--------|
|-0--------|
|-0--------|


INTRO - again
                        x4
|-------------------------|
|-------------------------|
|-------------------------|
|---------------------4h5-|
|---------3h5-----3h5-----|
|-0-0-4h5-----0-0---------|


Lead (arranged for guitar without a whammy pedal)
                                  x2
|-----------------------------------|
|-----------------------------------|
|-17-17-17-17-17-17~~-14-14~~~~\\\\-|
|-----------------------------------|
|-----------------------------------|
|-----------------------------------|


VERSE 2
                        x4
|-------------------------|-----------|
|-------------------------|-----------|
|-------------------------|-----------|
|---------------------4h5-|-2----5----|
|---------3h5-----3h5-----|-2----5----|
|-0-0-4h5-----0-0---------|-2----5----|

|-------------------------|-----------|
|-------------------------|-----------|
|-------------------------|-----------|
|---------------------4h5-|-2----5----|
|---------3h5-----3h5-----|-2----5----|
|-0-0-4h5-----0-0---------|-2----5----|

|-------------------------|--------------------|
|-------------------------|--------------------|
|-------------------------|--------------------|
|---------------------4h5-|-2--------1----5----|
|---------3h5-----3h5-----|-2--------1----5----|
|-0-0-4h5-----0-0---------|-2--------1----5----|


PRECHORUS 2
|-------------------------------------|
|-------------------------------------|
|-7--------7-------(7)------(7)-------|
|-7--------7--------7--------8--------|
|-5--------4--------5--------5--------|
|-------------------5--------5--------|

|----------|
|----------|
|-7--------|
|-7--------|
|-5--------|
|-0--------|


CHORUS 2
|----------------------------------------------------------------|
|----------------------------------------------------------------|
|-3--------------------------------------------5-----------------|
|-3--------3--------5--------0--------1--------5--------5--------|
|-1--------3--------5--------0--------1--------3--------5--------|
|----------3--------5--------0--------1-----------------5--------|

|------------------------------------------------------------------------|
|------------------------------------------------------------------------|
|-3--------------------------5-------------------------------------------|
|-3--------3--------1--------5--------5--------0--------1----------------|
|-1--------3--------1--------3--------5--------0--------1----------------|
|----------3--------1-----------------5--------0--------1----------------|


BRIDGE 2
                                    x2
|-------------------------------------|
|-------------------------------------|
|-------------------------------------|
|-1--------0--------6--------5--------|
|-1--------0--------6--------5--------|
|-1--------0--------6--------5--------|

|----------|
|----------|
|----------|
|-0--------|
|-0--------|
|-0--------|


OUTRO
                       x20
|-------------------------|
|-------------------------|
|-------------------------|
|---------------------4h5-|
|---------3h5-----3h5-----|
|-0-0-4h5-----0-0---------|

                           x12
|-----------------------------|
|-----------------------------|
|-----------------------------|
|-------------------3-5-5b6r5-|
|---------3h5---3h5-----------|
|-0-0-5h6-----0---------------|

            x8
|-------------|
|-------------|
|-------------|
|------5b6r5--|
|-------------|
|-0-0---------|

End on
|-----------|
|-----------|
|-----------|
|-0-0-0-----|
|-0-0-0-----|
|-0-0-0-----|
  development and support by
dmitry ivanov