rock
 
|tablatures   |lyrics   |discussion forums   |more tabs @ XGuitar.com

Smashing Pumpkins tabs

Girl Named Sandoz guitar tab

 Song:    Girl Named Sandoz
 Release: Pisces Iscariot
 Artist:  The Smashing Pumpkins
 Author:  Brian McCall 
 Tuning:  standard ?
 Notes:   Animals cover


G2 doubles G1

G1
          intro                
|----------------------------------------------------------------
|----------------------------------------------------------------
|-X-3--X-3--X-3--X-3--X-X-3---5---5--X-X-10b(11)r-8--5---5--X-X--
|-X-X--X-X--X-X--X-X--X-X-X---X---X--X-X-X--------X--X---X--X-X--
|-X-1--X-1--X-1--X-1--X-X-1---3---3--X-X-8-b(9)-r-6--3---3--X-X--
|-X----X----X----X----X-X------------X-X--------------------X-X--
                            
|----------------------------------------------------------------
|----------------------------------------------------------------
|-10b(11)r-8--5---5--X-X-10b(11)r-8--5---5--X-X------------------
|-X--------X--X---X--X-X-X--------X--X---X--X-X--5-X-8-X-8-------
|-8-b(9)-r-6--3---3--X-X-8-b(9)-r-6--3---3--X-X--X-X-X-X-X-------
|--------------------X-X--------------------X-X--3-X-6-X-6-------

Riff 1 (G1)
|----------------------------------------------------------------
|----------------------------------------------------------------
|-5---5--X-X-10b(11)r-8--5---5--X-X-10b(11)r-8--5---5--X-X-------
|-X---X--X-X-X--------X--X---X--X-X-X--------X--X---X--X-X-------
|-3---3--X-X-8-b(9)-r-6--3---3--X-X-8-b(9)-r-6--3---3--X-X-------
|--------X-X--------------------X-X--------------------X-X-------

|----------------------------------------------------------------
|----------------------------------------------------------------
|-10b(11)r-8--5---5--X-X-----------------------------------------
|-X--------X--X---X--X-X--5-5-8-5-8------------------------------
|-8-b(9)-r-6--3---3--X-X--X-X-X-X-X------------------------------
|--------------------X-X--3-3-6-3-6------------------------------

Riff 2
|----------------------------------------------------------------
|----------------------------------------------------------------
|-5------X-5-X-5--3------5------X-3--X-3--X-3--X-3--X-X-3--------
|-X------X-X-X-X--X------X------X-X--X-X--X-X--X-X--X-X-X--------
|-3------X-3-X-3--1------3------X-1--X-1--X-1--X-1--X-X-1--------
|--------X---X------------------X----X----X----X----X-X----------

Repeat Riff 1 then:

Riff 3

|----------------------------------------------------------------
|----------------------------------------------------------------
|-5------X-5-X-5--3------5------X-3--X-3--X-3--X-3--X-X-3--------
|-X------X-X-X-X--X------X------X-X--X-X--X-X--X-X--X-X-X---5-hbr
|-3------X-3-X-3--1------3------X-1--X-1--X-1--X-1--X-X-1---X----
|--------X---X------------------X----X----X----X----X-X-----3-hbr

  The last bent (G) is very gradual.  Listen to the record.  
  Add harsh feedback over it with G2.
  
  Solo (don't have it, though.)  then this riff:

G1

|--------------------------------------------------
|--------------------------------------------------
|--------------------------------------------------
|10-X10-X10-10-X10-X10--8--------------------------
|-X-X-X-X-X--X-X-X-X-X--X------6h8-8hbr-6~---------
|-8-X-8-X-8--8-X-8-X-8--6--6h8---------------------

G2

|--------------------------------------------------
|--------------------------------------------------
|------------------------------8h10-10hbr-8~-------
|10-X10-X10-10-X10-X10--8--8h10--------------------
|-X-X-X-X-X--X-X-X-X-X--X--------------------------
|-8-X-8-X-8--8-X-8-X-8--6--------------------------

Repeat several A# octaves then Riff 1 again until end. 
F
  development and support by
dmitry ivanov