rock
 
|tablatures   |lyrics   |discussion forums   |more tabs @ XGuitar.com

Smashing Pumpkins tabs

Fuck You (An Ode To No One) bass tab

Title: Fuck You (An Ode to No One)
Artist: The Smashing Pumpkins
Tuning: All strings 1/2 step down

Sorry, I didn't tab the whole rythm,
it's about four times as fast as I've 
tabbed it.

Play an F# (2 on E) for a while.
When it changes play A (5 on E) and go back to F#.

Then as it gets loud:

Riff1
G|-------------|
D|-------------|
A|-------------|
E|2--2--2-2-5--|

Then go back to beginning, then Riff1, then the beginning then
play Riff1 some more.

Chorus
Riff2-1                             Riff2-2
G|---------------------------------|------------------|
D|----------------------------2-2--|------------------|
A|------------------------2-2------|------------------|
E|2-2-2-2-4-4-4-4-5-5-5-5----------|2-2-X-2h2h2-2-2-X-|

Play Riff2-2 a few times then end on an E.
Keep playing your F#.


And I give it all back..
G|------------|
D|------------|
A|----2-------|
E|5-------2---|

Then play Riff2-1 twice then 2-2, then Riff1 during the solo.
Then Riff2-1 a bunch again then 2-2, then end on an E.

Author Unknown
  development and support by
dmitry ivanov