rock
 
|tablatures   |lyrics   |discussion forums   |more tabs @ XGuitar.com

Smashing Pumpkins tabs

Frail And Bedazzled guitar tab

 Song:    Frail and Bedazzled
 Release: Pisces Iscariot
 Artist:  The Smashing Pumpkins
 Author:  ErnieBall@aol.com
 Tuning:  standard


INTRO w/ Phaser

-----------------------------------------------
-----------------------------------------------
-----------------------------------------------
-----------------------------------------------
-----------------------------------------------
---0---0---0--5p0---0---0---0---0---0--5p0---0-

---------------------------------------------------
---------------------------------------------------
---------------------------------------------------
---------------------------------------------------
---------------------------------------------------
--0---0---0---0---5p0------0----0----0--5---0---5--

-------------------------------------------------
-------------------------------------------------
-------------------------------------------------
-------------------------------------------------
-------------------------------------------------
--0--0--0--5p0--0--0--0--0--0-5p0--0--0--0--0--0-

-----------------------------------
-----------------------------------
-----------------------------------
-----------------------------------
-----------------------7--7--7---7-
-5p0----0--0--0-5-0--5-------------


MAIN RIFF

--------------------------------------------
--------------------------------------------
--------------------------------------------
---7---7---7--7------7----7---7---7---7--7--
---0---0---0--5p0----0----0---0---0---5-p0--
--------------------------------------------

----------------------------------------------------------
----------------------------------------------------------
----------------------------------------------------------
----7---7---7---7---7---7---------7----7-----7--7--7--7---
----0---0---0---0---0---5p0-------0----0-----0--5--0--5---
----------------------------------------------------------

-------------------------------------------
-------------------------------------------
-------------------------------------------
-------------------------------------------
---7---7---7---7-------7--7---7----7--7-7--
---0---0---0---5p0-----0--0---0----0--5p0--

--------------------------------------------------------
--------------------------------------------------------
--------------------------------------------------------
--------------------------------------------------------
--7---7---7---7---7---7----------7---7---7---7--7--7----
--0---0---0---0---0---5p0--------0---0---0---5--0--5----

Then this..

---------------------------------------------
---------------------------------------------
---------------------------------------------
---7---7---7---7---7---7---7---7---7---7---7-
---0---0---0---5---0---0---0---0---0---5---0-
---------------------------------------------

--------------------------------------------
--------------------------------------------
--------------------------------------------
--7---7---7---7---7---7---7---7---7---7--7--
--0---0---0---0---5---0---0---0---0---0--5--
--------------------------------------------

----------------------------------------------
----------------------------------------------
----------------------------------------------
---7---7---7---7---7---7---7---7---7---7---7--
---0---0---0---0---0---5---0---0---0---0---0--
----------------------------------------------

-----------------------------------------------------
-----------------------------------------------------
-----------------------------------------------------
-7---7---7---7---7---7---7---7---7---7---7--7--7--7--
-5---0---0---0---0---0---5---0---0---0---0--5--0--5--
-----------------------------------------------------

Play that twice.

I'm not sure about this part

Then this solo type thingy;

--9---7---9-----9---7---9------9---7---9----
---------------8---------------8------------
--------------------------------------------
--------------------------------------------
--------------------------------------------
--------------------------------------------

------------------------------------
----8------7---8---7----------------
----------------------------7----9--
------------------------------------
------------------------------------
------------------------------------

Then comes the part with just Billy singing 
and the bass drum and then play the first riff 
a couple of times until this part comes in-

-----------------------------------------
-----------------------------------------
-----------------------------------------
-------------------7---7---7---7---7---7-
-5p-4p-0---0---0---0---0---0---0---0---0-
-----------------------------------------

---------------------------------------
---------------------------------------
---------------------------------------
--7--7---7---7---7---7--7---7---7---7--
--5--0---5---0---5---0--5---0---5------
---------------------------------------

This is played a couple of times then 
play this at the end once

A-----5---5---5---5---5---5---
E-----0---3---0---3---0---3---


Here is how I play the solo, it sounds right 
but might not be in the right key.

------------------------------------------
------------------------------------------
-----11s12--12--12---12s14--14--14--14s16-
------------------------------------------
------------------------------------------
------------------------------------------

------------------------------------------
------------------------------------------
-16--16---16s14--14--14---14s12---12---12-
------------------------------------------
------------------------------------------
------------------------------------------

----------------------------------------------------------
----------------------------------------------------------
-12p11---12b14-----14---16---11b13---12b14---11----9b11---
----------------------------------------------------------
----------------------------------------------------------
----------------------------------------------------------

The last three chords are D A G
8
  development and support by
dmitry ivanov