rock
 
|tablatures   |lyrics   |discussion forums   |more tabs @ XGuitar.com

Smashing Pumpkins tabs

Destination Unknown guitar tab

Song:    Destination Unknown
 Release: TAFH
 Artist:  The Smashing Pumpkins
 Author:  Roy Stevenson (are_you_done@yahoo.com)
 Tuning:  Eb
 Notes:   Missing Persons cover

 

Key:
p= pull-off
h= hammer


------|----------|-------------
------|-.-8----.-|--8----------
------|-------8--|-------------
----8-|-----8----|----8--------
--8---|-.------.-|-------------
------|----------|-------------

-----------------------------
-----------------------------
--9h10p9h10p9h10-------------
-----------------------------
-----------------------------
-----------------------------

-------------------------|
-----------------------.-|
-------------------------|
-------------------------|
----8-8-7-5-6-6-6-5----.-|
--6-----------------6----|

-----------------------------
-----------------------------
--9h10p9h10p9h10-------------
-----------------------------
-----------------------------
-----------------------------

-----------------------------
-----------------------------
-----------------------------
-----------------------------
-----------------------------
--0---2---5---0--------------

-------------------------|
-----------------------.-|
-------------------------|
-------------------------|
----8-8-7-5-6-6-6-5----.-|
--6-----------------6----|

-----------------------------
-----------------------------
--9h10p9h10p9h10-------------
-----------------------------
-----------------------------
-----------------------------

-----------------------------
-----------------------------
-----------------------------
-----------------------------
-----------------------------
--0---2---5---0--------------

-----------------------------
-----------------------------
--9h10p9h10p9h10-------------
-----------------------------
-----------------------------
-----------------------------
  development and support by
dmitry ivanov